Song name
# A B C D E F G H I J K L M N O P Q R S T U V W X Y Z

Van Halen - Dreams tab

Legend:
* - Natural Harmonic
w   - Whammy
~   - Vibrate
T   - Tap
t   - Tremolo
_   - Hold Note
1.  - Full Bend
0.5 - Half Bend
h   - Hammer-On
p   - Pull-Off
/   - Slide
b   - Bend

First Solo(2:41):

   * * * * * * * * * * * * * * * * * *    * * * * * * * * * * * * * * *
|--------------------------------------------------------------------------|
|--------------------------------------------------------------------------|
|----7-7---7-7---7-7---7-7---7-7---7-5w~~---7-7---7-7---7-7---7-7---7-3w~~-|
|--7-----7-----7-----7-----7-----7--------7-----7-----7-----7-----7--------|
|--------------------------------------------------------------------------|
|--------------------------------------------------------------------------|
                   1._______________0.5__________0__
|------------------------------------------------------|
|------------------------T----T----T----T----T----T----|
|------------7~~---5b---[14]-[12]-[14]-[12]-[14]-[12]--|
|-0h2w/3w/5w-------------------------------------------|
|------------------------------------------------------|
|------------------------------------------------------|
  1.___      1.____
|------17--------------------------------------------|
|-17br----17-17b~~/13-10h13p10----10-----------------|
|------------------------------12----12brp10----10~~-|
|--------------------------------------------12------|
|----------------------------------------------------|
|----------------------------------------------------|
            T                 T                 T                 T           T
|--T-------15p10h13--T-------15p10h13--T-------15p10h13--T-------15p13p12p10-15p13p12p10-|
|-15p10h13----------15p10h13----------15p10h13----------15p10h13-------------------------|
|----------------------------------------------------------------------------------------|
|----------------------------------------------------------------------------------------|
|----------------------------------------------------------------------------------------|
|----------------------------------------------------------------------------------------|

|--T-----------T------------------------------------------------------|
|-15p13p12p10-15p13p12p10--T------------------------------------------|
|-------------------------15p13p12p10~~-------------5/7h8p7-7/12-12~~-|
|-------------------------------------------------5-------------------|
|------------------------------------------3t/5-7---------------------|
|---------------------------------------------------------------------|
1.	    0.5    0.5    0.5    1.5___________
|-----15-----15-----15-----15-18b~~-(Vibrate-With-Whammy)-|
|-18b----18b----18b----18b--------------------------------|
|---------------------------------------------------------|
|---------------------------------------------------------|
|---------------------------------------------------------|
|---------------------------------------------------------|
   
Second Solo(4:02)
       
|-------8-10w-8-8~~-------8-10-10/12------------------8-10/12-|
|----10----------------10------------13-12-12~~----10---------|
|-/9----------------/9--------------------------/9------------|
|-------------------------------------------------------------|
|-------------------------------------------------------------|
|-------------------------------------------------------------|
   T      T      T      T      T      T      T      T      T      T      T      T      T
|-13p5h8-13p5h8-13p5h8-13p5h8-15p5h8-15p5h8-15p5h8-15p5h8-12p5h8-12p5h8-12p5h8-10p5h8-10p5h8-|
|--------------------------------------------------------------------------------------------|
|--------------------------------------------------------------------------------------------|
|--------------------------------------------------------------------------------------------|
|--------------------------------------------------------------------------------------------|
|--------------------------------------------------------------------------------------------|
   T        0.5    0.5    0.5    1.5___________
|-h10/---15-----15-----15-----15-18b~~-(Vibrate-With-Whammy)-|
|-----------18b----18b----18b--------------------------------|
|------------------------------------------------------------|
|------------------------------------------------------------|
|------------------------------------------------------------|
|------------------------------------------------------------|

All by my self
Tap to rate this tab
 
# A B C D E F G H I J K L M N O P Q R S T U V W X Y Z