Song name
# A B C D E F G H I J K L M N O P Q R S T U V W X Y Z

Van Halen - Love Walks In tab

Help us improve GuitareTab! Take a short survey!
Love Walks In
Van Halen
5150


Tabbed by: Dan "Halen" Dulle

E----------------------------------------------------------------------------|
B----------------------------------------------------------------------------|
G--0--5--7--9--10--9---0--5--9--12--10--9---0--5--7--9--10--9--5--2--5--4--5-|
D----------------------------------------------------------------------------|
A----------------------------------------------------------------------------|
E----------------------------------------------------------------------------|

E---------------------------------------------------------------------------|
B---------------------------------------------------------------------------|
G--0--5--7--9--10--12--0--5--9--12--10--9--0--5--7--9--10--9--5--2--5--4--5-|
D---------------------------------------------------------------------------|
A---------------------------------------------------------------------------|
E---------------------------------------------------------------------------|

E---------------------------------------------------------------------------|
B---------------------------------------------------------------------------|
G--12--14--15--14--14-- (4x)------------------------------------------------|
D---------------------------------------------------------------------------|
A---------------------------------------------------------------------------|
E---------------------------------------------------------------------------|


E--------------------------------------------------------------------------|
B--------------------------------------------------------------------------|
G--10--7/10--9--5--12--14--15--14--14--12--14--15--14--14--12--14--15--14--|
D--------------------------------------------------------------------------|
A--------------------------------------------------------------------------|
E--------------------------------------------------------------------------|

E--------------------------------------------------------------------------|
B--------------------------------------------------------------------------|
G--14--10--10--9--9--------------------------------------------------------|
D--------------------------------------------------------------------------|
A--------------------------------------------------------------------------|
E--------------------------------------------------------------------------|
Related for Love Walks In tab