Song name
# A B C D E F G H I J K L M N O P Q R S T U V W X Y Z

Van Morrison - Crazy Love tab

Van Morrison & Bob Dylan
Crazy Love
Standard Tuning

...sounds good to me...but who knows, i'm not on acid so i'm
probably not at the same level they were when they played it.



Intro:        G  B#m D   D/F

|-------------3---2--2h3--2------2---3-2---|
|-------------0---3--3----3----3---3-------|
|------0h2-0--0---4--2----2--2-------------|
|--0h2--------0---4--0----0----------------|
|-------------2---2-------0----------------|
|-------------3---2-------2----------------|

|-2h3---3--2-3-2h3-------------------------|
|-3---3-0--3-------3-----------------------|
|-------0--4---------2----7-10/12-11-------|
|-------0--4---------0--9------------------|
|-------2--2-------------------------------|
|-------3--2-------------------------------|

Riff 1:			Riff 2:

G|-----0h2-0--|		G|-----0h2-----0-|
D|-0h2--------|		D|-0h2-----3h4---|


Verse:

G		    B#m		C	  G
I can hear her heartbeat from a thousand miles   (Riff 1)
G		   B#m        D/F	    G
and the heavens open every time she smiles (Riff 2)
G		    B#m		 C      G
and when I come to her that's where I belong (Riff 1)
G	  B#m			D/F	 G
and I run into her like a wayward son

Chorus:

		G	D    Em     D	     C	   D
She gives me love, love, love, love, crazy love.
		G	D    Em     D	     C	   G
She gives me love, love, love, love, crazy love.

Verse 2: (Same Pattern)

Fine sense of humor when I'm feelin low down,
and when I come to her when the son goes down,
take away my trouble, take away my grief,
take away my heartache in the night like a thief.

Repeat Chorus

Bridge:

D		C	     G
And I need her in the daytime.
D		C	   G
And I need her in the night.
D		C		 G
And I wanna throw my arms around her.
B#m		      C		  G
Kiss and hug her, kiss and hug her tight.


Final Verse: (Original Pattern)

And when I'm returning from so far away,
give me some sweet lovin, brighten up my day.
It makes me righteous, it makes me whole,
and it makes me mellow down into my sole.


Chorus x2

...end



Tap to rate this tab
# A B C D E F G H I J K L M N O P Q R S T U V W X Y Z