Song name
# A B C D E F G H I J K L M N O P Q R S T U V W X Y Z

Vandals - Its A Fact tab

-------------------------------------------------------------------------------
			     IT'S A FACT - The Vandals
-------------------------------------------------------------------------------

Tuning: Low to High (E-A-D-g-b-e)

Warren uses some sort of effect, like a voice box thing or flanger or something, to make 
sound the way it does but this seems fine with me


SOLO
e|-/15--13~~------------13----13-15-17-15-13-15--13-----------|
B|-------------17^--17-----17--------------------11---17^-----|
G|------------------------------------------------------------|
D|------------------------------------------------------------|
A|------------------------------------------------------------|
E|------------------------------------------------------------|

e|-17---15---20-15-17-15-15---15--------------------15-15^^-15-15--15-----|
B|---18---18---------------18---18-18--17-17^-17-18--------------18--18-18|
G|------------------------------------------------------------------------|
D|------------------------------------------------------------------------|
A|------------------------------------------------------------------------|
E|------------------------------------------------------------------------|

That's it guys, no more. It didn't sound right at first but if you figure out the right 
it should sound perfect. Also if anyone figures out the effect, let me know.
Tap to rate this tab
# A B C D E F G H I J K L M N O P Q R S T U V W X Y Z