Song name
# A B C D E F G H I J K L M N O P Q R S T U V W X Y Z

Vanilla Ninja - When The Indians Cry tab

Help us improve GuitareTab! Take a short survey!
My first tab ever. Hope you'll enjoy it! Please email corrections,
suggestions, etc to little_drummerboy81@yahoo.com.

It's a pretty simple solo, but it might get a bit tricky at the final part. Enjoy!

[2:02]

e|--------------------------------------------------------------------------|
B|------------------7-10-8-7-8---7b8r7--------------------------------------|
G|-------------/8-9--------------------9/11~--11b12r11b12r11b12r11~---------|
D|-----------------------------9--------------------------------------------|
A|-4b5-2~--/6~--------------------------------------------------------------|
E|--------------------------------------------------------------------------|

[2:16]

e|--------------------12-14-17-15-14-15\------14b15-14-14b16-17b19~---------|
B|----------------/16-------------------------------------------------------|
G|----------------------------------------/16-------------------------------|
D|-9~-----------------------------------------------------------------------|
A|--------------------------------------------------------------------------|
E|-----11b12r11~------------------------------------------------------------|


(**)
e|-16----------------------------------------------------------------------|
B|----17-------------------------------------------------------------------|
G|-------16----------------------------------------------------------------|
D|----------19-18----------------------------------------------------------|
A|----------------19-------------------------------------------------------|
E|-------------------19-17-16-12\-12\-12\----------------------------------|


If you have trouble with the last bit (**), here's what I feel is an easier variation,
basically sound the same so don't worry.

e|-16-----------------------------------------------------------------------|
B|----17--------------------------------------------------------------------|
G|-------16-----------------------------------------------------------------|
D|----------19-18-14--------------------------------------------------------|
A|-------------------14-12-11-----------------------------------------------|
E|----------------------------12\-12\-12\-----------------------------------|


Just make sure you try and avoid sliding down when changing from 18-14, and instead
it sound like you're picking them individually.


Legend:
/   slide up
\   slide down
b   bend
r   release
~   vibrato
Related for When The Indians Cry tab