Guitaretab - guitar tabs
Song name
# A B C D E F G H I J K L M N O P Q R S T U V W X Y Z

Various - Cripple Creek tab

this is all i can remember and i don't know the solo but this is the simple parts.
riff a -------------------------------------------------------|
---2h3-3------------030------2h3-3----------------------------|
---------3--0-----1----3-----------3-0------------------------|
--------------0------------------------0---2--0---2-0---------| repeat this
------------------------------------------------4-------------|
--------------------------------------------------------------|
--------------------------------------------------------------|

-------------------------------------------------------------|
--------3-------------------------3--------------------------|
----2h4---4p2-------0---0----2h4----4p2-----0----------------|
---------------0h2----2-----------------0h2---2-0------------| repeat this once
--------------------------------------------------2----------|
----------------------------------------------------3--------|

thats all :D
[ Tab from: http://www.guitaretab.com/v/various/111849.html ]
Related for Cripple Creek tab
Advertisement will be closed in 10 seconds