Song name
# A B C D E F G H I J K L M N O P Q R S T U V W X Y Z

Vast - Temptation tab

VAST
Temptation
Tabbed by GOLDZWEIG

Acoustic Guitar 
Riff 1:
e|---------------------|
B|---------------------|
G|-2--2-2----2--2-2----|
D|-2--2-2----2--2-2----|
A|-0--0-0----0--0-0----|
E|--------3---------3--|


Riff 2:
Distorted Guitar:          
e|-------------------|
B|-------------------|
G|-------------------| x3    
D|------7--7-7-5--7--|      
A|-(3)--7--7-7-5--7--|       
E|------5--5-5-3--5--|      

Lyrics:
I went in the desert
I went searching for the truth
I stumbled across you and I
Know you're not the truth

I went in the ocean
I went looking for some love
All I found is that I found
I haven't found enough

I stand alone now
I stand alone
But can you save me from myself?
You are my temptation
You are my temptation
To do what I do is wrong
You are my temptation
You are my temptation
To do what I knew is wrong
What I knew is wrong is you
I stand alone now
I stand alone
But can you save me from myself?
Oh please?

They've been killing children
And nobody seems to care
They've been laughing at my God
My God, I wouldn't dare
You are my temptation.....
Tap to rate this tab
# A B C D E F G H I J K L M N O P Q R S T U V W X Y Z