Guitaretab - guitar tabs
Song name
# A B C D E F G H I J K L M N O P Q R S T U V W X Y Z

Vaughan Stevie Ray - Tin Pan Alley tab

-------------------------------------------------------------------------------
			     Tin Pan Alley  Apples in Stereo
-------------------------------------------------------------------------------
Tabbed by Tab Tabberson


Tuning: Standard

Intro lead
e|--------------------------------------------------------------------|
B|----8---------------------5--------------------------8--------------|
G|--------7---4-5-6-7-------------5-5/7--4-5-7--------------7--------|
D|-/5---5---5-----------/5-----5-----5/7-----------/5-----5-----5-----|
A|--------------------------------------------------------------------|
E|--------------------------------------------------------------------|

e|---------------8------8----------10------10-------------------------|
B|-----------------6------6-----------8-------8-----------------------|
G|--4-5-6-7---5------5------5---/7------7-------7---------------------|
D|--------------------------------------------------------------------|
A|--------------------------------------------------------------------|
E|--------------------------------------------------------------------|
  
Chord pattern: (G G C D) 6x
	       (C C G G A A C G) 2x
	 	  
[ Tab from: http://www.guitaretab.com/v/vaughan-stevie-ray/20238.html ]
bridge
e|--------------------------------------------------------------------|
B|--------------------------------------------------------------------|
G|--------------------------------------------------------------------|
D|---10--10--5----10--10--5----10--10--5---7--------------------------|
A|---10--10--5----10--10--5----10--10--5---7--------------------------|
E|---8---8---3----8---8---3----8---8---3---5--------------------------|

Solo 2x
e|------10----------------------------8-------------------------------|
B|-------------10----8-10-11-12-------------8-5/7--8-9-10------------|
G|---7------7-----7----------------5-----5-----5/7--------------------|
D|--------------------------------------------------------------------|
A|--------------------------------------------------------------------|
E|--------------------------------------------------------------------|

e|-----7--------------------------8----------5-5-5h7-5----------------|
B|----------8--------------------------8------------------------------|
G|--7----7-----7h9-10-11-12----5----5-----7---------------------------|
D|--------------------------------------------------------------------|
A|--------------------------------------------------------------------|
E|--------------------------------------------------------------------|

link http://www.applesinstereo.com/
lets get some more apples tabs up here
Related for Tin Pan Alley tab