Song name
# A B C D E F G H I J K L M N O P Q R S T U V W X Y Z

Veil Of Maya - Unbreakable tab

Veil of Maya - Unbreakable
Album: [id]
Tabbed by Anthony D (AlucardXIX)
Tuning: Drop B

Basic tab of the song, I shouldn't need to tab every single bar out if learning a VoM 
you should know how to do this stuff!

This is exactly how I play it.

Check out the video of me playing it here: http://www.youtube.com/watch?v=RVbDHl9TgYY


Played once
--------------------------------------------|
---11-11-11---------11-11-11----------------|
---14-14-14---------14-14-14----------------|
--------------------------------------------|
-0----------0-3-1-0----------0-3-1-0-111----|
-0----------0-3-1-0----------0-3-1-0-111----|


Riff 1 Very fast triple picking on these. This riff is repeated throughout.             
on other times through
----------------------------------------------------------------------------------------------|
---11-11-11--11-11-11-------11-11-11--11-11-11-------------11-11-11--11-11-11--11-11-11-------|
---14-14-14--14-14-14-------14-14-14--14-14-14-------------14-14-14--14-14-14--14-14-14-------|
----------------------------------------------------------------------------------------------|
-0----------------------3-1--------------------0-3-1-0-1-0-------------------------------0310-|
-0----------------------3-1--------------------0-3-1-0-1-0-------------------------------0310-|

-----------|
-----------|
-----------|
---7---12--|
-----------|
-04--08----|

Fill riff
----------------------------------------------------|
----------------------------------------------------|
----------------------------------------------------|
---------------7---8----12---10----8----7-----------|
-0-3-1-0-----------------------------------0-111----|
-0-3-1-0---04---05---08---07----05---04----0-111----|

Back to Riff 1 and such, listen for it.


Verse riff. Pretty much repeat this
----------------------------------------------------------------------------|
----------------------------------------------------------------------------|
-2-----------2-----------2---------2-----------2----------------------------|
-2-----------2-----------2---------2-----------2----------------------------|
-0-00-1/3\1--0-00-1/3\1--0-0-0-1---0-00-1/3\1--0-00-1/3\1--0--000-000-00----|
---00-1/3\1----00-1/3\1----0-0-1-----00-1/3\1----00-1/3\1--0--000-000-00----|


Another fill
--------------------------------------|
--------------------------------------|
--------------------------------------|
--------------------------------------|
-1-000-4-000-5-000-4-000-1-000--------|
-1-000-4-000-5-000-4-000-1-000--------|


Breakdown 1. Slight bend on every 1
--------------------------------------------------------------------|
--------------------------------------------------------------------|
--------------------------------------------------------------------|
--------------------------------------------------------------------|
--------------------------------------------------------------------|
-1-000-000-000-1-000-000-000-1-000-000-000-000-1-000-000-000-000----|

------------------------------------------------------------------|
------------------------------------------------------------------|
------------------------------------------------------------------|
------------------------------------------------------------------|
------------------------------------------------------------------|
1-000-000-000-000-1-000-000-000-000-1-000-000-000-1-000-000-000---|


Fill before chorus.
--------------------------------------------------|
------------------------------------------3-------|
------------------------5------------------3------|
----5----7---8---12----8-8-----7---3----1---3-----|
--------------------------5------------1----------|
-01---04--05---08----05-----04---01---1-----------|


Listen for the changes in the first chord and repeats.
--------------------------------------|
--------------------------------------|
----5-------------5-------------------|
---8-8----7--3---8-8----7---12--------|
--5---5-------------5-----------------|
-5------04-01--05-----04--08----------|


Fill riff
--------------------------------------|
-----3--------7-----------------------|
------3--------7----------------------|
---1---3----4---7---------------------|
--1--------5--------------------------|
-1--------4---------------------------|


Riff before breakdown. Listen for timing on this.
-------------------------------------|
----------10-------------------------|
-------------------------------------|
--0-------8-------------------12-----|
--0-------0-------0------------------|
--0-------0-------0--------08--------|


Breakdown 2
----------------------------------------------------------------------------------------------|
---11-11-11--11-11-11-------11-11-11--11-11-11-------------11-11-11--11-11-11--11-11-11-------|
---14-14-14--14-14-14-------14-14-14--14-14-14-------------14-14-14--14-14-14--14-14-14-------|
----------------------------------------------------------------------------------------------|
-0----------------------3-1--------------------0-3-1-0-1-0-------------------------------0310-|
-0----------------------3-1--------------------0-3-1-0-1-0-------------------------------0310-|

-----------|
-----------|
-----------|
---7---12--|
-----------|
-04--08----|


Fill before awesome breakdown
--------------------------------------------------|
------------------------------------------3-------|
------------------------5------------------3------|
----5----7---8---12----8-8-----7---3----1---3-----|
--------------------------5------------1----------|
-01---04--05---08----05-----04---01---1-----------|


Awesome breakdown, repeat twice. *=natural harmonic
--------------------------------------------------------|
--------------------------------------------------------|
-----------------------------------------------7*-------|
-1---------04540-7-7--8-8-8--05850----------------7*----|
--5---4-44-------4-4--5-5-5--------0-000-000------------|
---1--4-44-------4-4--5-5-5--------0-000-000------------|

----------------------------------------5-11-10---------|
---------------------------------------7----------------|
--------------------------------------7-----------------|
-8-----------04540-7-7--8-8-88888--5-8------------0-----|
--12---4-44--------4-4--5-5-55555-----------------------|
----8--4-44--------4-4--5-5-55555-------------------0---|


The positioning on the harmonics here is right between the 2nd and 3rd fret.
----------------------------2*2*2*2*----|
----------------------------2*2*2*2*----|
----------------------------2*2*2*2*----|
----------------------------2*2*2*2*----|
-1-000-4-000-5-000-4-000----2*2*2*2*----|
-1-000-4-000-5-000-4-000----------------|


Then this riff again
----------------------------------------------------------------------------|
----------------------------------------------------------------------------|
-2-----------2-----------2---------2-----------2----------------------------|
-2-----------2-----------2---------2-----------2----------------------------|
-0-00-1/3\1--0-00-1/3\1--0-0-0-1---0-00-1/3\1--0-00-1/3\1--0--000-000-00----|
---00-1/3\1----00-1/3\1----0-0-1-----00-1/3\1----00-1/3\1--0--000-000-00----|


Outro breakdown. This part is when everything kicks back in. Left side of bar only 
first time
Also, slight bend on every 1.
----|------------------------------------------------------------|
----|------------------------------------------------------------|
----|------------------------------------------------------------|
----|------------------------------------------------------------|
----|------------------------------------------------------------|
-00-|-1-00-00-1-000-1-00-1-000-1-00-1-00-00-1-000-1-00-1-000-00--|

-------------------------------------------------------------------|
-------------------------------------------------------------------|
-------------------------------------------------------------------|
-------------------------------------------------------------------|
-------------------------------------------------------------------|
-1-00-1-00-00-1-000-1-00-1-000-1-00-1-00-00-1-000-1-00-1-000-1-00--|


Lead part that kicks in after 2 times.
--------------------------------------|
--------------------------------------|
-------14-----------------------------|
-12-13----13-12-13----13--------------|
-------------------15-----------------|
--------------------------------------|
Tap to rate this tab
# A B C D E F G H I J K L M N O P Q R S T U V W X Y Z