Song name
# A B C D E F G H I J K L M N O P Q R S T U V W X Y Z

Venga Boys - Boom Boom Boom tab

-------------------------------------------------------------------------------
			     BOOM BOOM BOOM - Venga Boys
-------------------------------------------------------------------------------
Tabbed by: Mitch
Email: syracuse2003nc@hotmail.com

Tuning:

e|---------------------------------------------------------------------------|
B|-11-11-11-11---9-9-------------------------9-9-----------------------------|
G|----------------------11-------------------------11--8-----8-8-8-8---------|
D|--------------------------11----11-11-11-----------------------------------|
A|---------------------------------------------------------------------------|
E|---------------------------------------------------------------------------|

e|---------------------------------------------------------------------------|
B|-----9-11------------------------------------------------------------------|
G|-11--------11------------------11------------------------------------------|
D|------------------9-9-9-9-9-8----------------------------------------------|
A|---------------------------------------------------------------------------|
E|---------------------------------------------------------------------------|

Just repeat that one more time and that's it!  Enjoy!  If you have any suggestions just 
me at syracuse2003nc@hotmail.com!


| /  slide up
|   slide down
| h  hammer-on
| p  pull-off
| ~  vibrato
| +  harmonic
| x  Mute note
===============================================================================
Tap to rate this tab
# A B C D E F G H I J K L M N O P Q R S T U V W X Y Z