Song name
# A B C D E F G H I J K L M N O P Q R S T U V W X Y Z

Ventures - Wipe Out tab

The Ventures: Wipeout


E[-----------------|-----------------|-----------------|-----------------]
B[-----------------|-----------------|-----------------|-----------------]
G[-----------------|-----------------|-----------------|-----------------]
D[-----------------|-----------------|-----------------|-----------------]
A[-----------------|-----------------|-----------------|-----------------]
E[-0-3-4-5-5-3-0-0-|-0-3-4-5-5-3-0-0-|-0-3-4-5-5-3-0-0-|-0-3-4-5-5-3-0-0-]


E[-----------------|-----------------|-----------------|-----------------]
B[-----------------|-----------------|-----------------|-----------------]
G[-----------------|-----------------|-----------------|-----------------]
D[-----------------|-----------------|-----------------|-----------------]
A[-0-3-4-5-5-3-0-0-|-0-3-4-5-5-3-0-0-|-----------------|-----------------]
E[-----------------|-----------------|-0-3-4-5-5-3-0-0-|-0-3-4-5-5-3-0-0-]


E[---------------------------|-----------------|-------|---------]
B[---------------------------|-----------------|-------|---------]
G[---------------------------|-----------------|-------|---------]
D[---------------------------|-----------------|-------|---------]
A[---3-5-5/7-7-5-3-7-5-5-3---|-----------------|---7-7-|---------]
E[-5-----------------------5-|-0-3-4-5-5-3-0-0-|-5-----|-0-3-4-5-]


E[-4/5-5-5-5-5-5-|-4/5-5-5-5-5-5-|-4/5-5-5-5-5-5-5-5-]
B[-4/5-5-5-5-5-5-|-4/5-5-5-5-5-5-|-4/5-5-5-5-5-5-5-5-]
G[---------------|---------------|-------------------]
D[---------------|---------------|-------------------]
A[---------------|---------------|-------------------]
E[---------------|---------------|-------------------]


E[-8-5--------------------------|-----------------------|---------]
B[-----8-5----------------------|-----------------------|---------]
G[---------7-5-7-7b-5-----------|-5-7-7b-5--------------|---------]
D[--------------------7-5-7-5-7-|----------7-5----------|---------]
A[------------------------------|--------------7-5------|---------]
E[------------------------------|------------------8b-5-|-0-3-4-5-]

b = bend
/ = slide
Tap to rate this tab
 
# A B C D E F G H I J K L M N O P Q R S T U V W X Y Z