Song name
# A B C D E F G H I J K L M N O P Q R S T U V W X Y Z

Ventures - Sukiyaki tab

Help us improve GuitareTab! Take a short survey!
Intro:
E[
B[5--7-------------------------]
G[------5--5--7--9--5--5--9--12]
D[-----------------------------]
A[-----------------------------]
E[-----------------------------]

Verse 1:
E[-------------------]
B[-------------------]
G[-------------------]
D[-------------------]
A[-------------------]
E[5--5--7--9--5--2--0]

E[-------------------]
B[-------------------]
G[-------------------]
D[-------------------]
A[-------------------]
E[5--5--5--7--9--5--2]

E[-----------------------------------------------]
B[-----------------------------------------------]
G[-----------------------------------------------]
D[-----------------------------------------------]
A[-----------------------------------------------]
E[5--5--5--7--9---9--12--14--14--12--14--12--9--7]

E[--------------------------------------------------------]
B[--------------------------------------------------------]
G[--------------------------------------------------------]
D[--------------------------------------------------------]
A[--------------------------------------------------------]
E[5--5--5--2--7---7--7--5--9---7--5--5--14--12--9--5--2--5]

After that add this chords:A,D,C#m,E

Verse 2:

E[5--5--7--9--5--2--0]
B[-------------------]
G[-------------------]
D[-------------------]
A[-------------------]
E[-------------------]

E[5--5--5--7--9--5--2]
B[-------------------]
G[-------------------]
D[-------------------]
A[-------------------]
E[-------------------]

E[5--5--5--7--9---9--12--14--14--12--14--12--9--7]
B[-----------------------------------------------]
G[-----------------------------------------------]
D[-----------------------------------------------]
A[-----------------------------------------------]
E[-----------------------------------------------]

E[5--5--5--2--7---7--7--5--9---7--5--5--14--12--9--5--2--5]
B[--------------------------------------------------------]
G[--------------------------------------------------------]
D[--------------------------------------------------------]
A[--------------------------------------------------------]
E[--------------------------------------------------------]

Bridge:

E[----------------------------------------]
B[----------------------------------------]
G[----------7--7--9--11--7--11--9--9--6--9]
D[7--9--11--------------------------------]
A[----------------------------------------]
E[----------------------------------------]

E[------------------------------------]
B[------------------------------------]
G[7--7--7--9--9--10--7--10--9--6------]
D[--------------------------------7--9]
A[------------------------------------]
E[------------------------------------]

Repeat Verse 2 but end w/ this chords:A,D,C#m,E

Then after those chords play the last line of Verse 2


It has a slow tempo so it's easy!I suggest that you listen to the song to get the beat!

E-mail me at butingvalera1028@yahoo.com if you have some problems! 
Related for Sukiyaki tab