Song name
# A B C D E F G H I J K L M N O P Q R S T U V W X Y Z

Verax - In Your Eyes tab

       By: Verax
          

 ____  _  _  ____  ____  _____ 
(_  _)( \( )(_  _)(  _ \(  _  ) 
 _)(_  )  (   )(   )   / )(_)(  O
(____)(_)\_) (__) (_)\_)(_____) O


||------------------\       \
||-------------------\       \
||--999-12-9-6--7-8---\  x3   \
||--999-12-9-6--7-8---/        \
||--777-10-7-4--5-6--/          \
||------------------/            \     This is also the          /|
                                  \    Main riff and it plays   /-|
                                  /    During the last          \-|
||--------------\                /     Part of the song .        \|
||--------------/               /
||--999-12-9-8--\              /
||--999-12-9-8--/             /
||--777-10-7-6--\            /
||--------------/           /

You can also have the second guitar play this in the background:

\--/
 \/

||-----------------------\
||------------------------\
||-------------------------\  x3
||-------------------------/
||------------------------/
||--121212-15-12-9--10-11/

||-----------------\
||-----------------/
||-----------------\
||-----------------/
||-----------------\
||--121212-15-12-11/

 /\
/--\

This here is played after the above part, with the above part still playing in the background:

          Bend!      Bend!      Bend!  Bend!
||----------------------------------------\
||--12-14-12---12-14-12---12-14-12--13-14-/
||----------------------------------------\
||----------------------------------------/
||----------------------------------------\
||----------------------------------------/

 _  _  ____  ____  ___  ____ 
( \/ )( ___)(  _ \/ __)( ___)
 \  /  )__)  )   /\__ \ )__)  O
  \/  (____)(_)\_)(___/(____) O


||---------------------\
||----------------------\
||--5\x8---6\x6---8-8----\ x2 Listen to the song /|
||--5/x8---6/x6---8-8----/    For the rythm.     \|
||----------------------/
||---------------------/

  ___  _   _  _____  ____  __  __  ___ 
 / __)( )_( )(  _  )(  _ \(  )(  )/ __)
( (__  ) _ (  )(_)(  )   / )(__)( \__ \ O
 \___)(_) (_)(_____)(_)\_)(______)(___/ O


'Re-member                  You fail
    |   To Hold...              |    To see
    |     .|.Last breath        |       | Your mind
    |      |      |      Inside |       |      |   In need...'
||--|------|------|------|------|-------|------|------|-\
||--|------|------|------|------|-------|------|------|-/
||--V------V------V------V------V-------V------V------V-\
||--8------6------4------6------8-------6------4------6-/
||--10-----8------6------8------10------8------6------4-\
||--10-----8------6------8------10------8------6------4-/

Riff after the chorus:
         Let ring, then slide. (listen to the song for timing)
||-------|---------------------------------\
||-------|---------------------------------/
||-------|---------------------------------\
||-------V---------------------------------/
||--5---8~/7---9-10-11--13--12--7---8--7---\
||-----------------------------------------/


 _  _  ____  ____  ___  ____ 
( \/ )( ___)(  _ \/ __)( ___)
 \  /  )__)  )   /\__ \ )__)  O
  \/  (____)(_)\_)(___/(____) O


||---------------------\
||----------------------\
||--5\x8---6\x6---8-8----\ x2 Listen to the song /|
||--5/x8---6/x6---8-8----/    For the rythm.     \|
||----------------------/
||---------------------/

  ___  _   _  _____  ____  __  __  ___    ___  
 / __)( )_( )(  _  )(  _ \(  )(  )/ __)  (__ \ 
( (__  ) _ (  )(_)(  )   / )(__)( \__ \   / _/  O
 \___)(_) (_)(_____)(_)\_)(______)(___/  (____) O


'Re-member                  You fail
    |   To Hold...              |    To see
    |     .|.Last breath        |       | Your mind
    |      |      |      Inside |       |      |   In need...'
||--|------|------|------|------|-------|------|------|-\
||--|------|------|------|------|-------|------|------|-/
||--V------V------V------V------V-------V------V------V-\
||--8------6------4------6------8-------6------4------6-/
||--10-----8------6------8------10------8------6------4-\
||--10-----8------6------8------10------8------6------4-/


||-----------------------\                             \
||-----------------------/                              \
||--<88-55>x4-<77-44>x5--\                               \
||-----------------------/                                \
||-----------------------\                                 \
||-----------------------/                                  \
                                                             \ x2
||---------------------------------------------------\       /
||---------------------------------------------------/      /
||--(88-55)x4-(11,11-77)x2-(12,12-88)x1-(11,11-77)x1-\     /
||---------------------------------------------------/    /
||---------------------------------------------------\   /
||---------------------------------------------------/  /

Listen to the song very carefully for the above part

 _  _  ____  ____  ___  ____ 
( \/ )( ___)(  _ \/ __)( ___)
 \  /  )__)  )   /\__ \ )__)  O
  \/  (____)(_)\_)(___/(____) O


||---------------------\
||----------------------\
||--5\x8---6\x6---8-8----\ x1 ONLY PLAYS ONCE THIS TIME /|
||--5/x8---6/x6---8-8----/               !!!            \|
||----------------------/
||---------------------/


 _____  __  __  ____  ____  _____ 
(  _  )(  )(  )(_  _)(  _ \(  _  )
 )(_)(  )(__)(   )(   )   / )(_)(  O
(_____)(______) (__) (_)\_)(_____) O


'Re-member                  You fail
    |   To Hold...              |    To see
    |     .|.Last breath        |       | Your mind
    |      |      |      Inside |       |      |   In need...'
||--|------|------|------|------|-------|------|------|-\
||--|------|------|------|------|-------|------|------|-/
||--V------V------V------V------V-------V------V------V-\
||--8------6------4------6------8-------6------4------6-/
||--10-----8------6------8------10------8------6------4-\
||--10-----8------6------8------10------8------6------4-/


||------------------\       \
||-------------------\       \
||--999-12-9-6--7-8---\  x3   \
||--999-12-9-6--7-8---/        \
||--777-10-7-4--5-6--/          \
||------------------/            \                                    /|
                                  \    Play this in the background   /-|
                                  /    During the whole outro part.  \-|
||--------------\                /             (guitar 2)             \|
||--------------/               /
||--999-12-9-8--\              /
||--999-12-9-8--/             /
||--777-10-7-6--\            /
||--------------/           /

          Bend!      Bend!      Bend!  Bend!\
||----------------------------------------\  \
||--12-14-12---12-14-12---12-14-12--13-14-/   \
||----------------------------------------\    \ x2
||----------------------------------------/    /
||----------------------------------------\   /
||----------------------------------------/  /
                                            /


I tabbed this out by ear, so it's probably not 100% right, but it sounds okay.
If you have a way to improve it, my address is a couple of rows down from here, 
so feel free to send an email my way.


Tabbed by: Jimmy Zia L.
jimmyzia.l@gmail.com
Tap to rate this tab
# A B C D E F G H I J K L M N O P Q R S T U V W X Y Z