Guitaretab - guitar tabs
Song name
# A B C D E F G H I J K L M N O P Q R S T U V W X Y Z

Vermillion Lies - Circus Apocalypse tab

-------------------------------------------------------------------------------
			     CIRCUS APOCALYPSE - Vermillion Lies
-------------------------------------------------------------------------------
Tabbed by: Torsha
Email: alina.vyg@pop3.ru

(This is my first tab. ^^; Hope it sounds okay. I don't know the name of Bm1 
chord but its close to Bm =_=|||)

   Eb    Bm1  A             Eb    Bm1  A 
e|-------------------------|-------------------------0-----|
B|----5-----2-----2-----2--|----5-----2-----2-------2--2---|
G|----6-----4-----2-----2--|----6-----4-----2------2----2--|
D|----6-----4-----2-----2--|----6-----4-----2-----2------2-|
A|-4-----2-----0----0-0----|-4-----2-----0----0-0----------|
E|-------------------------|-------------------------------|
[ Tab from: http://www.guitaretab.com/v/vermillion-lies/185453.html ]
Eb   Bm1      A  
Come down and join the circus
Eb   Bm1      A  (and so on... LOL)
It's the end of your world
Come down and join the circus
All you dead boys and girls
If you still have a pulse
We can remedy that
You can check your life
While you check your hat

Come down and join the circus
It's the end of the line
You could fall off the highwire
Or feed yourself to the lions
There's no audition
To get into the show
All that we ask for
Is your immortal soul

(There goes the trumpet thing... I don't think I can tab that =_=|||)

Come down and join the circus 
It's easy to do
You could marry the strong man
But I think the knifethrower's got his eye on you
Your father will weep
Your mother will cry
Because to join the circus
You have to die

All you have to do is die
Related for Circus Apocalypse tab
Circus Apocalypse chords by Vermillion Lies