Song name
# A B C D E F G H I J K L M N O P Q R S T U V W X Y Z

Versaemerge - Toxic chords

Highlighted       Show chord diagrams
VersaEmerge
Toxic (Acoustic)
Britney Spears cover
Standard Tuning


The intro and the bridge might be a little tricky


-*Intro
e|-7------7------7------7------7------7------7--7~---|
B|---7------7------8------8------9------9-------10~--|
G|-----7------7------7------7------7------7-----7~---|
D|-9------9------9------9------9------9------9--9~---|
A|---------------------------------------------------|
E|---------------------------------------------------|


Cm
   Baby, can't you see?

I'm calling a guy like you

Should wear a warning
D#                 G              Cm
    It's dangerous,  I'm fallin'


   There's no escape

I can't wait, I need a hit

Baby, give me it
D#                   G                Cm
    You're dangerous,  I'm lovin' it

Cm
Too high, can't come down

Losing my head

Spinning 'round and 'round
D#           G                      Cm
                Do you feel me now?


e|-7777777777777777-|
B|-7777777788888888-|
G|-7777777777777777-|
D|-9999999999999999-|
A|------------------|
E|------------------|

       Cm
With a taste of your lips
    D#
I'm on a ride
D              C#
  You're toxic I'm slipping under
       Cm              D#
With a taste of poison paradise
    G#
I'm addicted to you
          G
Don't you know that you're toxic?
Cm     D#        D
           And I love what you do
          C#
Don't you know that you're toxic?

Cm | D# | G# | G


Cm
    It's getting late

To give you up

I took a sip from my devil cup
D#         G                 Cm
    Slowly,  taking over me

Cm
Too high, can't come down

It's in the air

And it's all around
D#           G                         Cm
                Oh do you feel me now?


With a taste of your lips
    D#
I'm on a ride
D              C#
  You're toxic I'm slipping under
       Cm              D#
With a taste of poison paradise
    G#
I'm addicted to you
          G
Don't you know that you're toxic?

Cm | D# | D | C# | Cm | D# | 
| G

-*Bridge
e|-7------7------7------7------7------7------7--~---7-----|
B|--10-----10------9------9------8------8------7------7---|
G|-----7------7------7------7------7------7------7~-----7-|
D|-9------9------9------9------9------9------9--~---9-----|
A|--------------------------------------------------------|
E|--------------------------------------------------------|

e|-7------7------7------7------7------7------7--~---9~--|
B|--10-----10------9------9------8------8------8--------|
G|-----7------7------7------7------7------7------7~-----|
D|-9------9------9------9------9------9------9--~-------|
A|------------------------------------------------------|
E|------------------------------------------------------|

With a taste of your lips

I'm on a ride
D              C#
  You're toxic I'm slipping under
       Cm              D#
With a taste of poison paradise
    G#
I'm addicted to you
          G
Don't you know that you're toxic?
        Cm
With a taste of your lips
    D#
I'm on a ride
D              C#
  You're toxic I'm slipping under
       Cm              D#
With a taste of poison paradise
    G#
I'm addicted to you
          G
Don't you know

Cm
   Intoxicate me now
D#
   With your lovin' now
D
   I think I'm ready now
C#
   I think I'm ready now
Cm
   Intoxicate me now
D#
   With your lovin' now
G#
   I think I'm ready now

G

woooo
Tap to rate this tab
 
# A B C D E F G H I J K L M N O P Q R S T U V W X Y Z