Song name
# A B C D E F G H I J K L M N O P Q R S T U V W X Y Z

Versailles - Vampire tab

----------------------------------------------------------------------------
			     VAMPIRE - Versailles
----------------------------------------------------------------------------
Tabbed by: Charlotte Fennell
Email: charliecure87@aol.com

I haven't tabbed the solo or the acoustic bit yet - if anyone wants to do it for me (!) 
just send me an e-mail and I'll update the tab (I'll credit you of course!)

Tuning: C# G# C# F# A# D#

Intro:

e|-------------------------------------------------------------------------|
B|-------------------------------------------------------------------------|
G|-------------------------------------------------------------------------|
D|-7-2-3-0-2-2------7--5-7------7--777-33-2--------------------------------|
A|-7-2-3-0-2-2------7--5-7------7--777-33-2--------------------------------|
E|-7-2-3-0-2-2------7--5-7------7--777-33-2--------------------------------|

e|--------------------------------------------------------------------|
B|--------------------------------------------------------------------|
G|-9-8h9p9-5-4h5p4-2-1---(x3)------2-5-1-4-7------ -------------------| (x2)
D|---------------------7---------/3-----------------------------------|
A|---------------------7----------------------------------------------|
E|---------------------7----------------------------------------------|

Verse 1:

e|-------------------------------------------------------------------------|
B|-------------------------------------------------------------------------|
G|-------------------------------------------------------------------------|
D|-777-333-555-222/555---777-333-555-2-------------------------------------|
A|-777-333-555-222/555---777-333-555-2-------------------------------------|
E|-777-333-555-222/555---777-333-555-2-------------------------------------|

e|-------------------------------------------------------------------------|
B|-------------------------------------------------------------------------|
G|---------------------------------9---7----9---8----9---7/14-13-7-9-------|
D|-------------------------------7---7----7---7----7---7-------------------|
A|-------------------------------------------------------------------------|
E|-------------------------------------------------------------------------|

e|-------------------------------------------------------------------------|
B|-------------------------------------------------------------------------|
G|-----------------------------------9-7---------------12-14-9-------------|
D|-777-333-555-222---------------7-------9-10-12----10---------------------|
A|-777-333-555-222--(x2)-----------8-------------10------------------------|
E|-777-333-555-222---------------------------------------------------------|

e|-------------------------------------------------------------------------|
B|-------------------------------------------------------------------------|
G|-----------------------------------9-7-----------------------------------|
D|-------------------------------7-------9-10-12------7--5-7--3-3-2--------|
A|---------------------------------8-------------10---7--5-7--3-3-2--------|
E|----------------------------------------------------7--5-7--3-3-2--------|

e|-------------------------------------------------------------------|
B|-------------------------------------------------------------------|
G|-------------------------------------------------------------------|
D|-8-4-6-7----------5/7-777\5-55-5/7-77-7\555/7-777\5-555/7-777/10---|
A|-8-4-6-7--(x2)----5/7-777\5-55-5/7-77-7\555/7-777\5-555/7-777/10-x2|
E|-8-4-6-7----------5/7-777\5-55-5/7-77-7\555/7-777\5-555/7-777/10---|

"Jesus Christ!":

e|--------------------------------------------------------------------|
B|--------------------------------------------------------------------|
G|--------------------------------------------------------------------|
D|-777-----------------777--7-8-5-7-3-5-2--777-----------------3-2----|
A|-777--7-8-5-7-3-5-2--777-----------------777--7-8-5-7-3-5-2--3-2----|
E|-777-----------------777-----------------777-----------------3-2----|

Verse 2:

e|-------------------------------------------------------------------------|
B|-------------------------------------------------------------------------|
G|-------------------------------------------------------------------------|
D|-777-333-555-222/555---777-333-555-2-------------------------------------|
A|-777-333-555-222/555---777-333-555-2-------------------------------------|
E|-777-333-555-222/555---777-333-555-2-------------------------------------|

(I haven't tabbed the solo yet, sorry!)

Solo - Rhythm part:

e|-------------------------------------------------------------------------|
B|-------------------------------------------------------------------------|
G|-------------------------------------------------------------------------|
D|-7-3-5-2---7-14-12-14---7-9-10-11-12---14--------------------------------|
A|-7-3-5-2---7-14-12-14---7-9-10-11-12---14--------------------------------|
E|-7-3-5-2---7-14-12-14---7-9-10-11-12---14--------------------------------|

(Acoustic part - haven't tabbed this yet either!)

e|-----------------------------------------------------------|
B|-----------------------------------------------------------|
G|------9-7---------------12-----------9-7-------------------|
D|--7-------9-10-12----10----7-----7-------9-10-12-----------|
A|----8-------------10---------8-----8-------------10-8------|
E|-----------------------------------------------------------|

e|-----------------------------------------------------------|
B|-----------------------------------------------------------|
G|-----------------------------------------------------------|
D|-7-2-3-0-2-2---7-5-777-33-2--------------------------------|
A|-7-2-3-0-2-2---7-5-777-33-2--------------------------------|
E|-7-2-3-0-2-2---7-5-777-33-2--------------------------------|

e|-------------------------------------------------------------------|
B|-------------------------------------------------------------------|
G|-------------------------------------------------------------------|
D|-8-4-6-7----------5/7-777\5-55-5/7-77-7\555/7-777\5-555/7-777/10---|
A|-8-4-6-7--(x4)----5/7-777\5-55-5/7-77-7\555/7-777\5-555/7-777/10-x2|
E|-8-4-6-7----------5/7-777\5-55-5/7-77-7\555/7-777\5-555/7-777/10---|

"Jesus Christ!":

e|-----------------------------------------------------------------|
B|-----------------------------------------------------------------|
G|-----------------------------------------------------------------|
D|-777-----------------777--7-8-5-7-3-5-2--777-----------------5-2-|
A|-777--7-8-5-7-3-5-2--777-----------------777--7-8-5-7-3-5-2--5-2-|
E|-777-----------------777-----------------777-----------------5-2-|

Outro:

e|-------------------------------------------------------------------|
B|-------------------------------------------------------------------|
G|-9-8h9p9-5-4h5p4-2-1---(x3)------2-5-1-4-7--555-7------------------|(x2)
D|---------------------7---------/3-----------555-7------------------|
A|---------------------7----------------------555-7------------------|
E|---------------------7----------------------555-7------------------|


************************************

| /   slide up
| \   slide down
| h   hammer-on
| p   pull-off

************************************
Tap to rate this tab
# A B C D E F G H I J K L M N O P Q R S T U V W X Y Z