Song name
# A B C D E F G H I J K L M N O P Q R S T U V W X Y Z

Verve - Slide Away tab

Help us improve GuitareTab! Take a short survey!
                                                                    
E||--------------------|--------------------|----------------------|
B||--------------------|--------------------|----------------------|
G||--------------------|--------------------|----------------------|
D||--------------------|--------------------|----------------------|
A||--12----------------|--12----------------|--12------------12r---|
E||--------------------|--------------------|----------------------|


                                                                
----------------------------------------|----------------------|
----------------------------------------|----------------------|
----------------12-14--12-14--12-14--12-|--14------------------|
----------12-14-------------------------|----------------------|
----12-14-------------------------------|----------------14----|
----------------------------------------|----------------------|


                                                                              
--------------------------------------------|--------------------------------|
-----------------------------------12h14----|--------------------------------|
---------------12-14--12-14--12-14-------14-|--12--14h12--14h12--14h12-------|
---------12-14------------------------------|--------------------------------|
---12-14------------------------------------|--------------------------------|
--------------------------------------------|--------------------------------|


                                                                    
------------------------------------|------------------------------|
---15h14--15h14--14--15--14-12------|------------------------------|
--------------------------------14/-|--12----12--------------------|
------------------------------------|-------------14--12-----------|
------------------------------------|---------------------14-12----|
------------------------------------|------------------------------|


                                                                               
------------------------|-----------------------------|-----------------------|
------------------------|-----------------------------|-----------------------|
------------------------|-----------------------------|-----------------------|
--2----2--2-7----7------|----7----5----4--4h5h4-0--2--|--2----2--2-7---7------|
--0----0--0-0--0-0------|--0----0----0----------------|--0----0--0-0---0------|
------------------------|-----------------------------|-----------------------|


                                                                        
-------------------------|--------------------|----3----2----0---------|
-------------------------|-----------3--------|--3----3----3-----------|
-------------------------|--2--------2--------|------------------------|
----7----5----4-----0----|--2--------0--------|------------------------|
--0----0----0------------|--0-----------------|------------------------|
-------------------------|--------------------|------------------------|


                                                                             
-----------------------|----3---2----0----------|---------------------------|
---------------3-------|--3---3----3------------|---------------------------|
------------2----------|------------------------|--2-4-2--------2-4----2----|
-----------------------|------------------------|---------4--2------4-------|
--0----0--0------------|------------------------|---------------------------|
-----------------------|------------------------|---------------------------|


                                                        
---------------------------|---------------------------|
---------------------------|---------------------------|
--2-4-2--------2-4----2----|--2-4-2--------2-4----2----|
---------4--2------4-------|---------4--2------4-------|
---------------------------|---------------------------|
---------------------------|---------------------------|


                                                               
---------------------------|----------------------------------|
---------------------------|----------------------------------|
--2-4-2--------2-4----2----|--0h2-0h2-0h2-0h2-0h2-0h2-0h2-0h2-|
---------4--2------4-------|----------------------------------|
---------------------------|----------------------------------|
---------------------------|----------------------------------|


                                                                      
----------------------------------|----------------------------------|
----------------------------------|--0h2-0h2-0h2-0h2-0h2-0h2-0h2-0h2-|
--2h4-2h4-2h4-2h4-2h4-2h4-2h4-2h4-|----------------------------------|
----------------------------------|----------------------------------|
----------------------------------|----------------------------------|
----------------------------------|----------------------------------|


                                                                                
--3---2---0---2---3--2--|------------------------|-----------------------------|
------------------------|------------------------|-----------------------------|
------------------------|------------------------|-----------------------------|
------------------------|--2----2--2-7----7------|----7----5----4--4h5h4-0--2--|
------------------------|--0----0--0-0--0-0------|--0----0----0----------------|
------------------------|------------------------|-----------------------------|


                                                                     
-----------------------|-------------------------|------------------|
-----------------------|-------------------------|------------------|
-----------------------|-------------------------|------------------|
--2----2--2-7---7------|----7----5----4--------2-|------------------|
--0----0--0-0---0------|--0----0----0------------|------------------|
-----------------------|-------------------------|------------------|


                                                               
-------------------|-------------------|----------------------|
-------------------|-------------------|------------3---------|
--2----------------|-------------------|----------2-----------|
--0----------------|--2----------------|--0----0--------------|
-------------------|--0----------------|----------------------|
-------------------|-------------------|----------------------|


                                                        
---------------------------|---------------------------|
---------------------------|---------------------------|
-----0----2-----0----0h2---|-----0----2-----0----0h2---|
--2-----2----2-----2-------|--2-----2----2-----2-------|
---------------------------|---------------------------|
---------------------------|---------------------------|


                                                        
---------------------------|---------------------------|
---------------------------|---------------------------|
-----0----2-----0----0h2---|-----0----2-----0----0h2---|
--2-----2----2-----2-------|--2-----2----2-----2-------|
---------------------------|---------------------------|
---------------------------|---------------------------|


                                                                                
-------------------------|---------------------------|-------------------------|
-------------------------|---------------------------|-------------------------|
---------2----------2----|---------0--------------0--|---------2----------2----|
--2--0h2--------0h2------|-----0-2------------0-2----|--2--0h2--------0h2------|
--0----------------------|----------------0-2--------|--0----------------------|
-------------------------|--3------------------------|-------------------------|


                                                      
---------------------------|-------------------------|
---------------------------|-------------------------|
---------0--------------0--|---------2----------2----|
-----0-2------------0-2----|--2--0h2--------0h2------|
----------------0-2--------|--0----------------------|
--3------------------------|-------------------------|


                                                      
---------------------------|-------------------------|
---------------------------|-------------------------|
---------0--------------0--|---------2----------2----|
-----0-2------------0-2----|--2--0h2--------0h2------|
----------------0-2--------|--0----------------------|
--3------------------------|-------------------------|


                                                      
---------------------------|-------------------------|
---------------------------|-------------------------|
---------0--------------0--|---------2----------2----|
-----0-2------------0-2----|--2--0h2--------0h2------|
----------------0-2--------|--0----------------------|
--3------------------------|-------------------------|


                                                      
---------------------------|-------------------------|
---------------------------|-------------------------|
---------0--------------0--|---------2----------2----|
-----0-2------------0-2----|--2--0h2--------0h2------|
----------------0-2--------|--0----------------------|
--3------------------------|-------------------------|


                                                               
---------------------------|----------------------------------|
---------------------------|----------------------------------|
---------0--------------0--|--0h2-0h2-0h2-0h2-0h2-0h2-0h2-0h2-|
-----0-2------------0-2----|----------------------------------|
----------------0-2--------|----------------------------------|
--3------------------------|----------------------------------|


                                                                      
----------------------------------|----------------------------------|
----------------------------------|--0h2-0h2-0h2-0h2-0h2-0h2-0h2-0h2-|
--2h4-2h4-2h4-2h4-2h4-2h4-2h4-2h4-|----------------------------------|
----------------------------------|----------------------------------|
----------------------------------|----------------------------------|
----------------------------------|----------------------------------|


                                                        
--3---2---0---2---3----|-------------------------------|
-----------------------|-------------------------------|
-----------------------|--------------14/12--14/12--14/|
-----------------------|-----------14------------------|
-----------------------|--0----------------------------|
-----------------------|-------------------------------|


                                                                 
-------------------------|--------------------------------------|
-------------------------|--14----------------------------------|
--12--14/12--------------|--14--14/12-----12--------------------|
-------------------------|------------14-----14---14---14---14--|
-------------------------|-------------------12---12---12---12--|
-------------------------|--------------------------------------|


                                                            
--12--------------------------------|----------------------|
------------------14----------------|------15--------------|
---------12-14----14--14/12----12---|---14-----------------|
------14--------------------14------|----------------------|
------12----------------------------|----------------------|
------------------------------------|----------------------|


                                                                           
---------------------------------|--------------------|-------------------|
--14-----------------------------|--------------------|-------------------|
--14--14/12-----12----14----12---|--------------------|-------------------|
------------14-------------------|--14----------------|--2----------------|
---------------------------------|--------------------|-------------------|
---------------------------------|--------------------|-------------------|


                                                                   
------------------------------------------------------------------|
--5-5-5-5-5-5-5-5-5-5-5-5-5-5-5-5-5-5-5-5-5-5-5-5-5-5-5-5-5-5-5-5-|
--6-6-6-6-6-6-6-6-6-6-6-6-6-6-6-6-6-6-6-6-6-6-6-6-6-6-6-6-6-6-6-6-|
--7-7-7-7-7-7-7-7-7-7-7-7-7-7-7-7-7-7-7-7-7-7-7-7-7-7-7-7-7-7-7-7-|
------------------------------------------------------------------|
------------------------------------------------------------------|


                                                                   
------------------------------------------------------------------|
--5-5-5-5-5-5-5-5-5-5-5-5-5-5-5-5-5-5-5-5-5-5-5-5-5-5-5-5-5-5-5-5-|
--6-6-6-6-6-6-6-6-6-6-6-6-6-6-6-6-6-6-6-6-6-6-6-6-6-6-6-6-6-6-6-6-|
--7-7-7-7-7-7-7-7-7-7-7-7-7-7-7-7-7-7-7-7-7-7-7-7-7-7-7-7-7-7-7-7-|
------------------------------------------------------------------|
------------------------------------------------------------------|


                                                                                
--12-12-12-12-12-12-12-12-12-12-12-12-12-12-12-12-12-12-12-12-12-12-12-12-12-12-
--10-10-10-10-10-10-10-10-10-10-10-10-10-10-10-10-10-10-10-10-10-10-10-10-10-10-
--9--9--9--9--9--9--9--9--9--9--9--9--9--9--9--9--9--9--9--9--9--9--9--9--9--9--
--------------------------------------------------------------------------------
--------------------------------------------------------------------------------
--------------------------------------------------------------------------------


                                                                                
--12-12-12/14-14-14-14-14-14-14-14-14-14-14-14-14-14-14-14-14-14-14-14-14-14-14-
--10-10-10-10-10-10-10-10-10-10-10-10-10-10-10-10-10-10-10-10-10-10-10-10-10-10-
--9--9--9--9--9--9--9--9--9--9--9--9--9--9--9--9--9--9--9--9--9--9--9--9--9--9--
--------------------------------------------------------------------------------
--------------------------------------------------------------------------------
--------------------------------------------------------------------------------


                                                                      
----------------------------------|----------------------------------|
----------------------------------|----------------------------------|
--0h2-0h2-0h2-0h2-0h2-0h2-0h2-0h2-|--2h4-2h4-2h4-2h4-2h4-2h4-2h4-2h4-|
----------------------------------|----------------------------------|
----------------------------------|----------------------------------|
----------------------------------|----------------------------------|


                                                           
----------------------------------|--3---2---0---2---3----|
--0h2-0h2-0h2-0h2-0h2-0h2-0h2-0h2-|-----------------------|
----------------------------------|-----------------------|
----------------------------------|-----------------------|
----------------------------------|-----------------------|
----------------------------------|-----------------------|


                                                                      
----------------------------------|----------------------------------|
----------------------------------|----------------------------------|
--0h2-0h2-0h2-0h2-0h2-0h2-0h2-0h2-|--2h4-2h4-2h4-2h4-2h4-2h4-2h4-2h4-|
----------------------------------|----------------------------------|
----------------------------------|----------------------------------|
----------------------------------|----------------------------------|


                                                            
----------------------------------|--3---2---0---2---3--2--|
--0h2-0h2-0h2-0h2-0h2-0h2-0h2-0h2-|------------------------|
----------------------------------|------------------------|
----------------------------------|------------------------|
----------------------------------|------------------------|
----------------------------------|------------------------|


                     
-------------------||
-------------------||
--2----------------||
--2----------------||
--0----------------||
-------------------||
Related for Slide Away tab