Song name
# A B C D E F G H I J K L M N O P Q R S T U V W X Y Z

Vex Red - Consider tab

Artist:  Vex Red
Song:  Consider

I haven't a clue what this is off of but it's a simple little acoustic piece.  Sounds 
it's only
Terry.  Got it off this site (vex-red.co.uk)

Dropped D (DADGBE)

there are only a couple riffs to this song, such as follows:

riff one:
E-------0--------------0--------------0--------------------|
B-------3--------------3--------------0------------6-------|
G-------2--------------2-----------5-------5---5---5---7---|
D----------------------------------5-------5---3-------5---|
A----0-------------0---------------3-------3---3-------5---|
D----0------0--0--0-------0--0-----------------3-------5---|

riff two:
E-------0--------------0------------0----------------------|
B-------3--------------3------------0---------------7--8---|
G-------2--------------2---------5-------5---5---6--6--7---|
D--------------------------------5-------5---3---4-----5---|
A----0------------0--------------3-------3---3---4-----5---|
D----0------0--0--0-------0--0---------------3---4-----5---|

riff three:
E-----------2--------------------------|-----------|
B-----------3--------------------------|-----------|
G-----------2--------------------------|-----------|
D-----------0--------3/10--10--10--10--|--3--3--3--|
A--0----0-------0----3/10--10--10--10--|--3--3--3--|
D--0----0-------0----3/10--10--10--10--|--3--3--3--|

welp, that about does it for consider.  I considered writing out all the lyrics but i 
that if you
are trying to play the song, odds are that you already have access to the lyrics!

Tabbed by: Jimi-James Brewer

------

I didn't tabbed this song. I found it in 911Tabs, but the site was so unstable, so I've 
to post it here.
Give credit to Jimi-James.
Tap to rate this tab
# A B C D E F G H I J K L M N O P Q R S T U V W X Y Z