Viikate - Hautajaissydn tab

E|---------------------------------|---------------------------------|
H|---------------------------------|---------------------------------|
G|---------------------------------|---------------------------------|
D|---------------------------------|---------------------------------|
A|-----------------3---5---3---2---|-0-----0-----3---------------3---|
E|---------------------------------|-----------------1-----1---------|
 |                                 |                                 |
E|---------------------------------|---------------------------------|
H|---------------------------------|---------------------------------|
G|---------------------------------|---------------------------------|
D|---------------------------------|-----------------------------3---|
A|-0---------------3---5---3---2---|-0-----0-----3-------------------|
E|---------------------------------|-----------------1-----1---------|

E|---------------------------------|---------------------------------|
H|---------------------------------|---------------------------------|
G|---------------------------------|---------------------------------|
D|-2-------------------------------|---------------------------------|
A|-----------------3---5---3---2---|-0-----0-----2---3-----2-----3---|
E|---------------------------------|---------------------------------|
 |                                 |                                 |
E|---------------------------------|---------------------------------|
H|---------------------------------|---------------------------------|
G|---------------------------------|---------------------------------|
D|-2-----0-------------------------|-----2-3-2---0-------------------|
A|-------------2---3---------------|-----------------3---2---0-------|
E|---------------------------------|-----------------------------3---|
 |                                 |                                 |
E|---------------------------------|
H|---------------------------------|
G|---------------------------------|
D|---------------------------------|
A|-0-------------------------------|
E|---------3-----------------------|
Tap to rate this tab
 
# A B C D E F G H I J K L M N O P Q R S T U V W X Y Z