Guitaretab - guitar tabs
Song name
# A B C D E F G H I J K L M N O P Q R S T U V W X Y Z

Vines - Paint It Black tab

Song - Paint it Black

Cover Band - The Vines
Original Band - the Rolling Stones


Listen to song for timing.

Standard Tuning (EADGBe)(you can also play this in drop D(DADGBe), just move the low E 
up 2 frets)


Ok, this is my first tab, so go easy...and i kind of modded it to how i play it, still 
good though, enjoy


Intro
E|-------------------------------------------------------------|-----------|
B|4-4-6-6-7-7-9-9-7-7-6-6-4-4-4-4-3-3-4-7~~-0h1h3h4~---4p3p1h3~|-----------|
G|-------------------------------------------------------------|-----------|
D|-------------------------------------------------------------|-----------|
A|-------------------------------------------------------------|PS\\\\--2~~|
E|-------------------------------------------------------------|PS\\\\--0~~|

Verse      /last time/
E|--------|----------|
B|-(X7)---|----------|
G|--------|----------|
D|--------|----------|
A|22222222|2222PS\\\\|
E|00000000|0000PS\\\\|

Chorus  (X2)
E|-------------------------------------|
B|-------------------------------------|
G|8-8\6-66-----6-66--------------------|
D|8-8\6-66-6-6-6-66-6-8-8-8-8x8-8-8-8--|
A|6-6\4-44-6-6-4-44-6-8-8-8-8x8-8-8-8--|
E|---------4-4------4-6-6-6-6x6-6-6-6--|

Verse
E|--------|----------|
B|-(X7)---|----------|
G|--------|----------|
D|--------|----------|
A|22222222|2222PS\\\\|
E|00000000|0000PS\\\\|
[ Tab from: http://www.guitaretab.com/v/vines/150125.html ]
Chorus  (X2)
E|-------------------------------------|
B|-------------------------------------|
G|8-8\6-66-----6-66--------------------|
D|8-8\6-66-6-6-6-66-6-8-8-8-8x8-8-8-8--|
A|6-6\4-44-6-6-4-44-6-8-8-8-8x8-8-8-8--|
E|---------4-4------4-6-6-6-6x6-6-6-6--|

Bridge (X2)
E|------------------------------------|
B|4-6-7-7/9-7-6h7p6p4-4-3-4-6-4h6p4p3-|
G|------------------------------------|
D|------------------------------------|
A|------------------------------------|
E|------------------------------------|

Chorus  (X2)
E|-------------------------------------|
B|-------------------------------------|
G|8-8\6-66-----6-66--------------------|
D|8-8\6-66-6-6-6-66-6-8-8-8-8x8-8-8-8--|
A|6-6\4-44-6-6-4-44-6-8-8-8-8x8-8-8-8--|
E|---------4-4------4-6-6-6-6x6-6-6-6--|


Verse
E|--------|----------|
B|-(X7)---|----------|
G|--------|----------|
D|--------|----------|
A|22222222|2222PS\\\\|
E|00000000|0000PS\\\\|

Chorus  (X2)
E|-------------------------------------|
B|-------------------------------------|
G|8-8\6-66-----6-66--------------------|
D|8-8\6-66-6-6-6-66-6-8-8-8-8x8-8-8-8--|
A|6-6\4-44-6-6-4-44-6-8-8-8-8x8-8-8-8--|
E|---------4-4------4-6-6-6-6x6-6-6-6--|

Bridge II
E|------------------------|--------|
B|-------(X7)-------------|--------|
G|------------------------|--------|
D|------------------------|--------|
A|2--2222--2222--22222222-|2--2222-|
E|0--0000--0000--00000000-|0--0000-|

Outro
E|----------------------------|-------|
B|4-6-7-7/9-7-6-4-4-3-4-6-4-3-|-------|
G|----------------------------|-------|
D|----------(X8)--------------|2--2222|
A|----------------------------|2--2222|
E|----------------------------|0--0000|

Legend:
H - hammer-ons
PS - pick slide
P - pull-offs
x - muted note
~ - let ring
/ - slide up
\ - slide down
Related for Paint It Black tab
×
Paint It Black