Song name
# A B C D E F G H I J K L M N O P Q R S T U V W X Y Z

Vines - Braindead tab

----------------------------------------------------------------------------
			     Braindead - The Vines
----------------------------------------------------------------------------
Tabbed by: Jacob de Weger
Email: jacob.deweger@gmail.com

Tuning: Standard

Intro/Verse (Clean):

     PM PM PM PM PM PM PM PM    PM PM PM PM PM PM PM PM  
E||--------------------------|--------------------------|
B||--------------------------|--------------------------|
G||--------------------------|--------------------------|
D||--8--8--8--6--6--------6--|--6-----------------------|
A||--6--6--6--4--4--7--7--4--|--4--6--6--4--4--4--4--4--|
E||-----------------5--5-----|-----4--4--2--2--2--2--2--|


Chorus (Distortion):
  
E||--------------------------|--------------------------|
B||--------------------------|--------------------------|
G||--8--8--8--6--6--------6--|--6-----------------------|
D||--8--8--8--6--6--7--7--6--|--6--6--6--4--4--4--4--4--|
A||--6--6--6--4--4--7--7--4--|--4--6--6--4--4--4--4--4--|
E||-----------------5--5-----|-----4--4--2--2--2--2--2--|


Bridge (Distortion):
  
E||--------------------------|
B||--------------------------|
G||--------------------------|
D||--6--6--6--6--6--6--6--6--|
A||--6--6--6--6--6--6--6--6--|
E||--4--4--4--4--4--4--4--4--|

E||--------------------------|--------------------------|
B||--------------------------|--------------------------|
G||--------------------------|--------------------------|
D||--7--7--7--7--7--7--7--7--|--4--4--4--4--4--4--4--4--|
A||--7--7--7--7--7--7--7--7--|--4--4--4--4--4--4--4--4--|
E||--5--5--5--5--5--5--5--5--|--2--2--2--2--2--2--2--2--|


Solo (listen to the song for timing): 

E||--------------------------|------------5---4----4----|
B||--4~--4---7b---4---7b-----|-----4~---4-------7-------|
G||--------------------------|--------------------------|
D||--------------------------|--------------------------|
A||--------------------------|--------------------------|
E||--------------------------|--------------------------|

E||---6~---5~------5---4----4/11~--|
B||--------------4--------7--------|
G||--------------------------------|
D||--------------------------------|
A||--------------------------------|
E||--------------------------------|


Outro (Distortion):

  E  E  E  E  E  E  E  E     E  E  E  E  E  E  E  E    
E||--------------------------|--------------------------||
B||--------------------------|--------------------------||
G||--8--8--x--6--x--------6--|--x-----------------------||
D||--8--8--x--6--x--7--x--6--|--x--6--x--4--4--4--4--4--||
A||--6--6--x--4--x--7--x--4--|--x--6--x--4--4--4--4--4--||
E||-----------------5--x-----|-----4--x--2--2--2--2--2--||


Tablature Legend
----------------
x - dead note
b - bend
/ -  slide into from below or out of upwards
~ - vibrato
Tap to rate this tab
# A B C D E F G H I J K L M N O P Q R S T U V W X Y Z