Song name
# A B C D E F G H I J K L M N O P Q R S T U V W X Y Z

Virgin Prunes - Sweethome Under White Clouds tab

Virgin Prunes
Sweethome Under White Clouds
...If I die, I die
Transcribed by: Tom Quinn

Band website:
http://www.virginprunes.com/

This is another easy one.  The album version is much simpler than the live version 
(which adds a guitar part in the beginning of the song), so I'm transcribing both.  Feel free 
to e-mail me (M0L3CH@yahoo.com) with any corrections.  Enjoy ;)

Tuning: Standard (E A D G B e)

INTRO RIFF A (LIVE)                                                  Repeat
e|------------------------------------------------------------------------||
B|-----------------------------------------------------------------------o||
G|--9-9------9-9------9-9------9-9------9-9------9-9------9-9------9--9---||
D|--9-9------9-9------9-9------9-9------9-9------9-9------9-9------9--9---||
A|--7-7------7-7------7-7------7-7------7-7------7-7------7-7------7--7--o||
E|------------------------------------------------------------------------||


INTRO RIFF B (LIVE)
e|-------------------------------------------------------8-7~\x--||
B|-------------------------------------------------------8-7~\x--||
G|--9-9------9-9------9-9------9-9------9-9------7-/-9---9-8~\x--||
D|--9-9------9-9------9-9------9-9------9-9------7-/-9-----------||
A|--7-7------7-7------7-7------7-7------7-7------5-/-7-----------||
E|---------------------------------------------------------------||


MELODY
e|--------------------------------------------------------------------||
B|-------------------------------------------------------------------o||
G|--9-9-9-9---------9-9-9-9---------9-9-9-9---------9-9-9-9-----------||
D|----------9-9-9-9---------9-9-9-9---------9-9-9-9---------9-9-9-9---||
A|-------------------------------------------------------------------o||
E|--------------------------------------------------------------------||
    m m m m m m m m m m m m m m m m m m m m m m m m m m m m m m m m

The lyrics are all online, and mostly correct.  Have fun.


Key:

 m = Palm mute
 x = Dead note
 ~ = Vibrato
 / = Slide up
 \ = Slide down
Tap to rate this tab
# A B C D E F G H I J K L M N O P Q R S T U V W X Y Z