Song name
# A B C D E F G H I J K L M N O P Q R S T U V W X Y Z

Vit Legion - Arise tab

Arise By: Vit Legion

Intro/interlude:

    E        G  E                 C
E|--------------------------------------|
B|--------------------------------------|
G|--------------------------------------|
D|--------------------------------5--5--|
A|--2--2--2--5--2--2--2--2--2--2--3--3--|
E|--0--0--0--3--0--0--0--0--0--0--------|

    E                             D
E|--------------------------------------|
B|--------------------------------------|
G|--------------------------------------|
D|--------------------------------7--7--|
A|--2--2--2--5--2--2--2--2--2--2--5--5--|
E|--0--0--0--3--0--0--0--0--0--0--------|

Verse:
   E                             C               B       D
E|-----------------------------------------------------------------|
B|-----------------------------------------------------------------|
G|-----------------------------------------------------------------|
D|-------------------------------5-5-5-5-5-5-5-5-4-4-4-4-7-7-7-7---|
A|-2-2-2-2-2-2-2-2-2-2-2-2-2-2-2-3-3-3-3-3-3-3-3-2-2-2-2-5-5-5-5---|
E|-0-0-0-0-0-0-0-0-0-0-0-0-0-0-0-----------------------------------|
     . . . . . . . . . . . . . .

Chorus:
    E       G  D    E       C  B
E|--------------------------------|
B|--------------------------------|
G|----------7---------------------|
D|----------5--7------------5--4--|
A|--2--2-------5----2--2----3--2--|
E|--0--0------------0--0----------|

Bridge:
    E                                               C B C B
E|-----------------------------------------------------------|
B|-----------------------------------------------------------|
G|-----------------------------------------------------------|
D|--------------------------------------------------5-4-5-4--|
A|--2--2--2--2--2--2--2--2--2--2--2--2--2--2--2--2--3/2/3/2--|
E|--0--0--0--0--0--0--0--0--0--0--0--0--0--0--0--0-----------|

    E                                               C
E|-----------------------------------------------------------|
B|-----------------------------------------------------------|
G|-----------------------------------------------------------|
D|--------------------------------------------------5--------|
A|--2--2--2--2--2--2--2--2--2--2--2--2--2--2--2--2--3--------|
E|--0--0--0--0--0--0--0--0--0--0--0--0--0--0--0--0-----------|
Tap to rate this tab
# A B C D E F G H I J K L M N O P Q R S T U V W X Y Z