Guitaretab - guitar tabs
Song name
# A B C D E F G H I J K L M N O P Q R S T U V W X Y Z

Vnv Nation - Perpetual tab

Intro: repeat G Bm

Additional Guitar (Intro): with some minor variations 
e| --------3------- | --------3------- | --------3------- | --------3------- |
B| ----3-----3----- | ----3-----3----- | ----3-----3----- | ----3-----3----- |
G| --4---4-----4--- | --4---4-----4--- | --4---4-----4--- | --4---4-----4--- |
D| 5-------------5- | --------------5- | --------------5- | --------------5- |
A| ---------------- | ---------------- | ---------------- | ---------------- |
E|(3)-----------(3)-| -------------(3)-| -------------(3)-| -------------(3)-|


e| --------3------- | --------3------- | --------3------- | --------3------- ||
B| ----3-----3----- | ----3-----3----- | ----3-----3----- | ----3-----3----- ||
G| --4---4-----4--- | --4---4-----4--- | --4---4-----4--- | --4---4-----4--- ||
D| 4-------------4- | --------------4- | --------------4- | --------------4- ||
A| ---------------- | ---------------- | ---------------- | ---------------- ||
E|(2)-----------(2)-| -------------(2)-| -------------(2)-| -------------(2)-||



Verse 1 (fast and softly strummed chords):
G
 Find it in you, raise your eyes
                          Bm
Look beyond the place you stand
G
Towards the furthest reaches
                      Bm
And to the smallest of things

G
Bm

Verse 2:
G
 The sound you are hearing
                           Bm
Is the symphony of what we are
G
 Revelation will not come
                                 Bm
With heart and mind closed and divided


Chorus: 

C                            G
 No need of sun to light the way
                         D
Across the ages, we have reigned as we endured
             C                                G
 Through the storm fronts we will ever surely pass
                  D
To stand as never ending light

[ Tab from: http://www.guitaretab.com/v/vnv-nation/245672.html ]
Additional Guitar (2x/Chorus): sounds good without brackets as well
 
e| 2-3-2-------2-3- | 2-----3-5---3--- | 2-3-2-------2-3- | 2-----5-3---3--- |
B| ------3--(3)---- | --3------------- | ------3--(3)---- | --3------------- |
G| -------(2)------ | ---(2)---------- | -------(2)------ | ---(2)-----------|
D| ---------------- | ---------------- | ---------------- | -----------------|
A| ---------------- | ---------------- | ---------------- | -----------------|
E| ---------------- | -----------------| -----------------| -----------------|

e| 2-3-2-------2-3- | 2-----5-3---3--- | 2-3-2-------2-3- | 2-----5-3---3--- |
B| ------3--(3)---- | --3------------- | ------3--(3)---- | --3------------- |
G| -------(2)------ | ---(2)---------- | -------(2)------ | ---(2)-----------|
D| ---------------- | ---------------- | ---------------- | -----------------|
A| ---------------- | ---------------- | ---------------- | -----------------|
E| ---------------- | -----------------| -----------------| -----------------|

if you are better, play it like this:

e| ---------------- | --------5------- | ---------------- | ------5--------- |
B| 7-8-7-------7-8- | 7-----8-----8--- | 7-8-7-------7-8- | 7--------8--8--- |
G| ------7---7----- | --7------------- | ------7---7----- | --7------------- |
D| --------7------- | ----7----------- | --------7------- | ----7----------- |
A| ---------------- | ---------------- | ---------------- | -----------------|
E| ---------------- | -----------------| -----------------| -----------------|

e| ---------------- | ------5--------- | ---------------- | ------5--------- |
B| 7-8-7-------7-8- | 7-------8---8--- | 7-8-7-------7-8- | 7-------8---8--- |
G| ------7---7----- | --7------------- | ------7---7----- | --7------------- |
D| --------7------- | ----7----------- | --------7------- | ----7----------- |
A| ---------------- | ---------------- | ---------------- | -----------------|
E| ---------------- | -----------------| -----------------| -----------------|


Verse 3:

Throw away the mantle
Awake from your uncertain hesitation
No way to describe or equate the feeling
No end to what is at your command

Verse 4:

A million thoughts run through you
Concentric circles, ever greater
But you have always known
That this is not all there is
To your questions there'll be answers

(Chorus)

Outro (same as chorus):
          C                    G  
Let there be, let there always be
             D
Never ending light
          C                    G  
Let there be, let there always be
             D
Never ending light
Related for Perpetual tab
Perpetual chords by Vnv Nation