Song name
# A B C D E F G H I J K L M N O P Q R S T U V W X Y Z

Void - Who Are You tab

 Intro
E|---------|---------|-------------------------------------------------------|
B|---------|---------|-------------------------------------------------------|
G|-----10--|---------|-------------------------------------------------------|
D|--3--10--|------3--|------3-----3---3-1---1-----------3-----3-------1------|
A|--3--8---|---------|--------------------3---3-1-----------------1-3--------|
E|--1------|--1-1----|--1-1---1-1-------------------1-1---1-1----------------|

E|---------------------------------------------------------------------------|
B|---------------------------------------------------------------------------|
G|-----------------------------------------------------13-12-12--13-12-------|
D|--1---1--------3-----3---3-1---1-----------3-----3---13-12-12--13-12-------|
A|----3------------------------3---3-1-----------------11-10-10--11-10-------|
E|-----------1-1---1-1-------------------1-1---1-1---------------------------|

   Verse				   Chorus
E|---------------------------------------|-----------------------------------|
B|---------------------------------(x4)--|-----------------------------(x4)--|
G|--10-10-10--8-8-8--10-10--13-12--------|--10-10-10-10--8-------8-----------|
D|--10-10-10--8-8-8--10-10--13-12--------|--10-10-10-10--8-10-8--8-8---------|
A|--8--8--8---6-6-6--8--8---11-10--------|--8--8--8--8---6-10-8--6-8---------|
E|---------------------------------------|-----------------8--6----6---------|

   Repeat Verse/Chorus x2
 
   End: F ...

Tap to rate this tab
# A B C D E F G H I J K L M N O P Q R S T U V W X Y Z