Song name
# A B C D E F G H I J K L M N O P Q R S T U V W X Y Z

Volbeat - The Mirror And The Ripper tab

---------------------------------------------------------------------------
			     The Mirror and the Ripper - Volbeat
---------------------------------------------------------------------------
Tabbed by: niggl90

Tuning: Drop D

its my first tab ;) I think its pretty good ;)

video: http://www.youtube.com/watch?v=HF2X-92_RFs

d|------------------------------------------------------------------------|
A|------------------------------------------------------------------------|
F|------------------------------------------------------------------------|
C|-9-9--9-9-9-9-9-9-9-9-9-9-9-9-9-9-9-9---4x------------------------------|
G|-9-9--------------------------------------------------------------------|
D|-7-7--------------------------------------------------------------------|

d|------------------------------------------------------------------------|
A|------------------------------------------------------------------------|
F|------------------------------------------------------------------------|
C|-9-9---9-9---9-9--------5-5---5-5---9-9---------------------------------|
G|-9-9---9-9---9-9--------5-5---5-5---9-9---------------------------------|
D|-7-7---7-7---7-7--------3-3---3-3---7-7---------------------------------|

d|------------------------------------------------------------------------|
A|------------------------------------------------------------------------|
F|------------------------------------------------------------------------|
C|------------------------------------------------------------------------|
G|-5-5-5-5-5-5-5-5-5-5-5-5-5-5-5-5-5-5-5-5-5-5-5-5-5-5-5-5-5-5-5-5--------|
D|-3-3-3-3-3-3-3-3-3-3-3-3-3-3-3-3-3-3-3-3-3-3-3-3-3-3-3-3-3-3-3-3--------|

Part 1

d|------------------------------------------------------------------------|
A|------------------------------------------------------------------------|
F|------------------------------------------------------------------------|
C|-7/9-9-9--9-9-9--7/9-9-9---9-9-9--7/9-9-9---9-9-9--5---4---4-4-4-4-4-4-|
G|-7/9-9-9--9-9-9--7/9-9-9---9-9-9--7/9-9-9---9-9-9--5---4---4-4-4-4-4-4-|
D|-5/7-7-7--7-7-7--5/7-7-7---7-7-7--5/7-7-7---7-7-7--3---2---2-2-2-2-2-2-|

d|------------------------------------------------------------------------|
A|------------------------------------------------------------------------|
F|------------------------------------------------------------------------|
C|-7/9-9-9---9-9-9--7/9-9-9---9-9-9--7/9-9-9-9-9-9-9-9-9-9-9-9-9-9-9------|
G|-7/9-9-9---9-9-9--7/9-9-9---9-9-9--7/9-9-9-9-9-9-9-9-9-9-9-9-9-9-9------|
D|-5/7-7-7---7-7-7--5/7-7-7---7-7-7--5/7-7-7-7-7-7-7-7-7-7-7-7-7-7-7------|

(2nd Guitar)
d|------------------------------------------------------------------------|
A|------------------------------------------------------------------------|
F|------------------------------------------------------------------------|
C|-7/9-9-9---9-9-9--7/9-9-9---9-9-9--7/9-9-9---9-9-9--5---4---4-4-4-4-4-4-|
G|------------------------------------------------------------------------|
D|------------------------------------------------------------------------|


d|-------------------------------------------------------------------------|
A|-------------------------------------------------------------------------|
F|--------------------------------10-10-10-10-10-10-10-10-10-10-10-10-10-9-|
C|7/9-9-9---9-9-9--11-9-9---9-9-9-----------------------------------------9|
G|-------------------------------------------------------------------------|
D|-------------------------------------------------------------------------|



Part 2

d|------------------------------------------------------------------------|
A|------------------------------------------------------------------------|
F|------------------------------------------------------------------------|
C|-9-9-9-9-9-9-9-9-9-9-9-9-9-9-9-9-9-9-9-9-9-9-9-9-9-9-9-9-9-9-9-9--------|
G|-9-9-9-9-9-9-9-9-9-9-9-9-9-9-9-9-9-9-9-9-9-9-9-9-9-9-9-9-9-9-9-9--------|
D|-7-7-7-7-7-7-7-7-7-7-7-7-7-7-7-7-7-7-7-7-7-7-7-7-7-7-7-7-7-7-7-7--------|

d|------------------------------------------------------------------------|
A|------------------------------------------------------------------------|
F|------------------------------------------------------------------------|
C|-7-7-7-7-7-7-7-7-7-7-7-7-7-7-7-7-7-7-7-7-7-7-7-7-7-7-7-7--5---7---------|
G|-7-7-7-7-7-7-7-7-7-7-7-7-7-7-7-7-7-7-7-7-7-7-7-7-7-7-7-7--5---7---------|
D|-5-5-5-5-5-5-5-5-5-5-5-5-5-5-5-5-5-5-5-5-5-5-5-5-5-5-5-5--3---5---------|


d|------------------------------------------------------------------------|
A|------------------------------------------------------------------------|
F|------------------------------------------------------------------------|
C|-9-9-9-9-9-9-9-9-9-9-9-9-9-9-9-9-9-9-9-9-9-9-9-9-9-9-9-9-9-9-9-9--------|
G|-9-9-9-9-9-9-9-9-9-9-9-9-9-9-9-9-9-9-9-9-9-9-9-9-9-9-9-9-9-9-9-9--------|
D|-7-7-7-7-7-7-7-7-7-7-7-7-7-7-7-7-7-7-7-7-7-7-7-7-7-7-7-7-7-7-7-7--------|


d|------------------------------------------------------------------------|
A|------------------------------------------------------------------------|
F|------------------------------------------------------------------------|
C|-7-7-7-7-7-7-7-7-7-7-7-7-7-7-7-7-7-7-7-7-7-7-7-7-7-7-7-7-7-7-7-7--------|
G|-7-7-7-7-7-7-7-7-7-7-7-7-7-7-7-7-7-7-7-7-7-7-7-7-7-7-7-7-7-7-7-7--------|
D|-5-5-5-5-5-5-5-5-5-5-5-5-5-5-5-5-5-5-5-5-5-5-5-5-5-5-5-5-5-5-5-5--------|


d|------------------------------------------------------------------------|
A|------------------------------------------------------------------------|
F|------------------------------------------------------------------------|
C|-5----7/9-9-9---9-9-9--7/9-9-9---9-9-9--7/9-9-9---9-9-9--5/9-9-9---9-9-9|
G|-5----7/9-9-9---9-9-9--7/9-9-9---9-9-9--7/9-9-9---9-9-9--5/9-9-9---9-9-9|
D|-3----5/7-7-7---7-7-7--5/7-7-7---7-7-7--5/7-7-7---7-7-7--5/7-7-7---7-7-7|


d|------------------------------------------------------------------------|
A|------------------------------------------------------------------------|
F|------------------------------------------------------------------------|
C|-5----7/9-9-9---9-9-9--7/9-9-9---9-9-9-7--7-7--7-7-7-7-7-7-7-7-7-7-7----|
G|-5----7/9-9-9---9-9-9--7/9-9-9---9-9-9-7--7-7--7-7-7-7-7-7-7-7-7-7-7----|
D|-3----5/7-7-7---7-7-7--5/7-7-7---7-7-7-5--5-5--5-5-5-5-5-5-5-5-5-5-5----|

Part 3

d|------------------------------------------------------------------------|
A|------------------------------------------------------------------------|
F|-9-----9-----7----------------------------------------------------------|
C|-9--9--9--9--7--7--9--7-------------------------------------------------|
G|-7--9--7--9--5--7--9--7-------------------------------------------------|
D|----7-----7-----5--7--5-------------------------------------------------|
 
strum chords or do this 


d|------------------------------------------------------------------------|
A|--------8----------------------------8---------------------------7------|
F|-----9-------7---------9-----------9-----9---------9-----------7-----7--|
C|---9-----------7-----9-----9-----9--------9------9-----9-----7---------7|
G|-7-----------------9---------9-7---------------9---------9-5------------|
D|-----------------7--------------------------7---------------------------|

d|-------------------------|
A|-------------------------|
F|-------6-----------------|
C|-----7-----7-----9--7----|
G|---7---------7---9--7----|
D|-5---------------7--5----|

Part 4

d|------------------------------------------------------------------------|
A|------------------------------------------------------------------------|
F|------------------------------------------------------------------------|
C|------------------------------------------------------------------------|
G|------------------------------------------------------------------------|
D|-3--3-3--3-3--3-3--3-3--3-3--3-3--3-3--3--7--7-7--7-7--7-7--7-7---------|


d|---------------------------------|--------------------------------------|
A|---------------------------------|--------------------------------------|
F|---------------------------------|--------------------------------------|
C|------------------------------4x-|-----------7-----5--------------------|
G|-------5---8-br-7----------------|-----------7-----5--------------------|
D|-7-5-7------------7~-------------|-----------5-----3--------------------|


Repeat part 1-4 

d|----------------|
A|----------------|
F|----------------|
C|-7----5----9----|
G|-7----5----9----|
D|-5----3----7----|

Part 5
( 2nd guitar plays only the notes on the C-string) 
d|------------------------------------------------------------------------|
A|------------------------------------------------------------------------|
F|------------------------------------------------------------------------|
C|-9--9-9--9-9-9-9-9-9-9-9-9-9-9---9--9-9--9-9-9-9-9-9-9-9-9-9-9----------|
G|-9--9-9--9-9-9-9-9-9-9-9-9-9-9---9--9-9--9-9-9-9-9-9-9-9-9-9-9----------|
D|-7--7-7--7-7-7-7-7-7-7-7-7-7-7---7--7-7--7-7-7-7-7-7-7-7-7-7-7----------|

pm|-------------------------------------------------------------|

d|------------------------------------------------------------------------|
A|------------------------------------------------------------------------|
F|------------------------------------------------------------------------|
C|-5--5-5--5-5-5-5-5-5-5-5-5-5-5---5--5-5--5-5-5-5-5-5-5-5-5-5-5----------|
G|-5--5-5--5-5-5-5-5-5-5-5-5-5-5---5--5-5--5-5-5-5-5-5-5-5-5-5-5-----2x---|
D|-3--3-3--3-3-3-3-3-3-3-3-3-3-3---3--3-3--3-3-3-3-3-3-3-3-3-3-3----------|

pm|-------------------------------------------------------------|


d|------------------------------------------------------------------------|
A|------------------------------------------------------------------------|
F|------------------------------------------------------------------------|
C|-7-7-7-7-7-7-7-7-7-7-7-7-7-7-7-7-7-7-7-7-7-7-7-7-7-7-7-7-7-7-7-7---9----|
G|-7-7-7-7-7-7-7-7-7-7-7-7-7-7-7-7-7-7-7-7-7-7-7-7-7-7-7-7-7-7-7-7---9----|
D|-5-5-5-5-5-5-5-5-5-5-5-5-5-5-5-5-5-5-5-5-5-5-5-5-5-5-5-5-5-5-5-5---7----|

************************************

| /   slide up
| h   hammer-on
| p   pull-off
| ~   vibrato
| b   Bend
| pb  Pre-bend
| br  Bend release
| pbr Pre-bend release
| brb Bend release bend


Tap to rate this tab
 
# A B C D E F G H I J K L M N O P Q R S T U V W X Y Z