Song name
# A B C D E F G H I J K L M N O P Q R S T U V W X Y Z

Volcano Choir - Tiderays tab

-------------------------------------------------------------------------------
                             TIDERAYS - Volcano Choir
-------------------------------------------------------------------------------
Tabbed by: Tom Hill
E-mail: tom-hill95@hotmail.co.uk

This is a lovely riff from a great song on a superb album.

There are a few bits that I missed out (the chorus and outro), but here's a start. If 
anyone can work them out, please do.

Listen out for what note the riff ends on each time.

Tuning: Standard

The riff sometimes ends on a C#, as shown below...

e|-----------------------------------------------------------------------------|
B|-----------------------9-12--------------------------------------------------|
G|-----------------8-11----9-------9-8-9-8\6-----------------------------------|
D|------9/11-9-11-------------9-9----------------------------------------------|
A|-----------------------------------------------------------------------------|
E|----7------------------------------------------------------------------------|

Or it ends on a B...

e|-----------------------------------------------------------------------------|
B|-----------------------9-12--------------------------------------------------|
G|-----------------8-11----9-------9-8-9-8-------------------------------------|
D|------9/11-9-11-------------9-9----------9-----------------------------------|
A|-----------------------------------------------------------------------------|
E|----7------------------------------------------------------------------------|


************************************

| /   slide up
| \   slide down
| h   hammer-on
| p   pull-off
| ~   vibrato
| +   harmonic
| x   Mute note
| b   Bend
| pb  Pre-bend
| br  Bend release
| pbr Pre-bend release
| brb Bend release bend

************************************
Tap to rate this tab
# A B C D E F G H I J K L M N O P Q R S T U V W X Y Z