Song name
# A B C D E F G H I J K L M N O P Q R S T U V W X Y Z

Von Bondies - Cryin tab

Title: Cryin
Artist: The Von Bondies
Album: Raw And Rare
Tabbed By Pat Kelly

This is a great song, lots of fun to play.

Legand:
h=Hammer
b=Bend


|-------------------------|
|-------------------------|
|-------------------------|
|-------------------------|
|-------------------------|
|-------------------------|

Intro
|----------------------------------------------------------------|
|----------------------------------------------------------------|
|----------------------------------------------------------------|
|----------------------------------------------------------------|
|-5--7-7h-5-------5--7-7-5---5--7-7h-5-------5--7-7-5------------|
|-0--0-0--0--h7---0--0-0-0---0--0-0--0--h7---0--0-0-0------------|


|-----------------------------------------------|
|-----------------------------------------------|
|-----------------------------------------------|
|-----------------------------------------------|
|-5--7-7h-7-------5--7-7-5----------------------|
|-0--0-0--0--h7---0--0-0-0---7-6-5-3-5-3-5-0----|

  C C C C C C C C  A A A A A A
|---------------------------------------|
|-5-5-5-5-5-5-5-5--2-2-2-2-2-2----------|
|-5-5-5-5-5-5-5-5--2-2-2-2-2-2----------|
|-5-5-5-5-5-5-5-5--2-2-2-2-2-2----------|
|-3-3-3-3-3-3-3-3--0-0-0-0-0-0----------|
|---------------------------------------|

 Chorus
  E   A   E   A
|-----------------------------|
|-----2-0-----2-0-------------|X How ever many times needed
|---0-2-0---0-2-0-------------|
|-2-0-2-0-2-0-2-0-------------|
|-2-0-0-0-2-0-0-0-------------|
|-0-------0-------------------|



 Verse
  E   G  E   G  E
|------------------------------|
|-----0------0-----------------|X However many times needed
|-----0------0-----------------|
|-2---0--2---0--2--------------|
|-2---x--2---x--2--------------|
|-0---3--0---3--0--------------|


Bridge
|-------------------------|
|-------------------------|
|----1-2-1----------------|X However many times needed
|-2-----------------------|
|-2----------2h3h2--------|
|-0--------3--------3-----|


Thats the whole song. The order is fairly simple if you listen to the song. hope you
enjoy. Questions or comments please send to thegrandmother@crapmail.com. thank you!
Tap to rate this tab
# A B C D E F G H I J K L M N O P Q R S T U V W X Y Z