Guitaretab - guitar tabs
Song name
# A B C D E F G H I J K L M N O P Q R S T U V W X Y Z

Von Bondies - No Regrets tab

standard tuning.
b-bend
intro
e-------|
B-------|repeat
G-------|
D-------|
A-2/13b-when u slide to 13 already start the bend
E-0-----

Verse/Main Riff
e------------------------------------------------------------------------|
B------------------------------------------------------------------------|
G------------------------------------------------------------------------|
D-2--------------------------------(2)--2--------------------------------|
A-2------2-----2-----2-----2--------2---2------2-----2-----2-----2-------|
E-0---0--0--0--0--0--0--0--0--3-2-1-0---0---0--0--0--0--0--0--0--0-3-2-1-|
[ Tab from: http://www.guitaretab.com/v/von-bondies/135589.html ]
contd.
e----------------------------|
B----------------------------|
G---------7-8-9-9-9-9-9------|(9)
D-4-0-2-0-X-X-X-9-9-9-9------|(9)
A-2-X-0-X-5-6-7-7-7-7-7------|(7)
E---3---3--------------------|

"Solo"
                          END 1       END 2
e------------------------------------------------------0-3-0-5b-|
B--------------------------------------------------3------------|
G------------------------------0----------0--2--4----4----------|repeat
D-------5---3---2-(X2)-----0/2---0----0/2-----------------------|
A-------3-5-1---0-----------------------------------------------|
E-0--3----3----2------------------------------------------------|

then main riff/verse some more, i think that's most of it, and i think it sounds pretty good
Related for No Regrets tab
No Regrets chords by Von Bondies