Song name
# A B C D E F G H I J K L M N O P Q R S T U V W X Y Z

Vulgar - Blank tab

                     I N T R O
----------------------------------------------------------------|
----------------------------------------------------------------|
----------------------------------------------------------------|
----------------------------------------------------------------|
-----0---0----2H4445--------------------------------------------|
-----0---0------------------------------------------------------|
    P.M....       HARM.

                   V E R S E
---------------------------------------------------------|
---------------------------------------------------------|
---------------------------------------------------------|
---------------------------------------------------------|
---00003----00005------00007------00007H9005-------------|
---00003----00005------00007------00007H9005-------------|
  P.M..    P.M..      P.M..      P.M..  P.M

           C H O R U S
----------------------|
----------------------|
----------------------|
----------------------|
-------5--53---37---7-|
-------5--53---37---7-|


                       B R I D G E
-----------------------------|
-----------------------------|
-----------------------------|
--------------------------XX-|
-----------5---7----------XX-|
--------555---------55----XX-|
HARM..................
Tap to rate this tab
# A B C D E F G H I J K L M N O P Q R S T U V W X Y Z