Waka Flocka Flame - No Hands tab

e|---------------------------------------------------------------------------|
B|------10---8------8h10--8h10-----------------------------------------------|
G|-7------------10-----------------------------------------------------------|
D|---------------------------------------------------------------------------|
A|---------------------------------------------------------------------------|
E|---------------------------------------------------------------------------|

e|---------------------------------------------------------------------------|
B|-------10-----8------------------------------------------------------------|
G|-7-----------------10--9--10--9-----7--------------------------------------|
D|---------------------------------------------------------------------------|
A|---------------------------------------------------------------------------|
E|---------------------------------------------------------------------------|
Tap to rate this tab
 
# A B C D E F G H I J K L M N O P Q R S T U V W X Y Z