Song name
# A B C D E F G H I J K L M N O P Q R S T U V W X Y Z

Wake Owl - Gold tab

Wake! Owl - Gold
From: Wild Country(Ep)

Band Website: www.wakeowl.com

Tabbed by Mark Sheridan. (This is my first tab)

-Intro [Guitar 1]
e|-------------------------------------------------------------------|
B|------7-----7---7-----7-----7---7-----7-----7---7-----7-----7---7--|
G|----7-----7---------7-----7---------7-----7---------7-----7--------|
D|--9-----9-----9---9-----9-----9---7-----7-----7---7-----7-----7----|
A|-------------------------------------------------------------------|
E|-------------------------------------------------------------------|


-Verse Riff:[Guitar 1] (Played through twice before the singing starts. Verse 1 + 2)
e|-------------------------------------------------------------------|
B|------7-----7---7-----7-----7---7-----7-----7---7-----7-----7---7--|
G|----7-----7---------7-----7---------7-----7---------7-----7--------|
D|--9-----9-----9---9-----9-----9---7-----7-----7---7-----7-----7----|
A|-------------------------------------------------------------------|
E|-------------------------------------------------------------------|


e|-----------------------------------------------------------------------------|
B|-------10------10----10------10------10----10-----7-----7---7-----7-----7---7|
G|-----9-------9-------------9-------9------------7-----7---------7-----7------|
D|--12------12------12----12------12------12----9-----9-----9---9-----9-----9--|
A|-----------------------------------------------------------------------------|
E|-----------------------------------------------------------------------------|



-Verse Strumming [Guitar 2] (Strumming lightly, while Guitar 1 continues what it is playing.) 
e|----------------5------------|
B|--7------7------5------7-----|
G|--7------7------7------7-----|
D|--9------7-------------9-----|
A|-----------------------------|
E|-----------------------------|

-This is played when the 'oooooo' happens after the first verse. Does not play 
over the 2nd 'oooooo'


-Verse 1
Bm                     D            G               Bm
So, didn't you find love or salvation in what they do
Bm                     D                          G                    
a heart is built of gold, they fairies they are too, its in the hands you
  Bm 
hold
Bm                   D                       G                           Bm
how long can we ignore, we build a little more, and then we break our truth


Bm                     D               G               Bm
'ooooooooooooooooooooo'  *no singing*  'ooooooooooooooo'   X2

-Chorus
G                     D            A               Bm
I don't feel like I'm falling, I'm up against the sky
G                      D      A               Bm
I said I'd taken it all in to make the good life
G                     D            A               Bm
I don't feel like I'm falling, I'm up against the sky
G                               D      A               Bm      G(Strummed a little before
let's grab the heart of the world and turn into the light         the verse satarts again)


-Verse 2
But I cannot turn around, the angels hear me now, go where i'm bound,
you smile like you know the new world has been found

'oooooo' 

-Chorus
I don't feel like I'm falling, I'm up against the sky,
I said I'd taken it all in to make the good life,
I don't feel like I'm falling, I'm up against the sky,
let's grab the heart of the world and turn into the light
I don't feel like I'm falling, I'm up against the sky,
let's grab the heart of the world and turn into the light
Tap to rate this tab
# A B C D E F G H I J K L M N O P Q R S T U V W X Y Z