Song name
# A B C D E F G H I J K L M N O P Q R S T U V W X Y Z

Wakey Wakey - War Sweater Acoustic tab

-------------------------------------------------------------------------------
                             War Sweater - Wakey! Wakey!
-------------------------------------------------------------------------------
Tabbed by: Ajay Nayyar
email: ajnayyar@gmail.com

Beautiful song that I know a lot of people have been pining to play with not a tab in 
sight, so here it is! Mike plays it with a capo on 5th when he does it acoustically live. 
All chords are relative to the capo.

Tuning: Standard

Intro/Verse:

Mike slides between these two chords... you should feel free to experiment with it.

|----3--6--------3-------------------------|
|----3--6--------3-------------------------|
|----0--0--------0-------------------------|
|----0--0--------2-------------------------|
|----x--x--------3-------------------------|
|----3--6--5-------------------------------|

Chorus: (I haven't included specific change areas, but let me know if you need me to 
show you where the chords change relative to the lyrics)

|---3---3---3---3---3---3---3---3---2---3--3---3---3---3---2---3---2-----|
|---3---3---3---3---3---3---3---3---3---3--3---3---3---3---3---3---3-----|
|---0---0---0---0---0---0---0---0---2---0--0---0---0---0---2---2---2-----|
|---0---0---0---2---0---2---0---0---0---0--2---0---2---0-----------------|
|---2---x---2---3---2---3---2---x-------2--3---2---3---2-----------------|
|---3---2---0-------3-------3---2-------3------3-------------------------|

That's pretty much it, lads. I haven't included any strumming patterns, but it shouldn't 
be too bad to figure out from Mike's live performances. I think I got it all, but feel 
free to shoot me an email if I can be of any further help! Cheers!
Tap to rate this tab
# A B C D E F G H I J K L M N O P Q R S T U V W X Y Z