Song name
# A B C D E F G H I J K L M N O P Q R S T U V W X Y Z

Walker Jr - Shot Gun tab

From: Kevin Gardner 
Date: Mon, 24 Jul 1995 18:14:53 -0400
Subject: /j/jr._walker_and_the_all_stars/shot_gun.tab


Shot Gun
by Jr. Walker and the All Stars
transcribed by kevin Gardner code@wam.umd.edu

Kick guitar amp with reverb spring at start of song to simulate the sound
of a shot gun shot.  (This was latter used by the Doors on "Unknown
Soldiers", and latter by Deep Purple at the veryu end of "Highway Star".)

Main Guitar Riff:

-|--4--4-4------------|-
-|--7--7-7------------|-
-|--5--5-5------------|-
-|--4--4-4--------4---|-
-|--6--6-6---6--6---6-|-
-|--4--4-4------------|-
            \_p.m.__/


at 0:40 this Riff is done eight times

-|--4--4-4---11--11--11--11--|-
-|--7--7-7---12--12--12--12--|-
-|--5--5-5---11--11--11--11--|- the 11's are bend a quater step sharp
-|--4--4-4-------------------|-
-|--6--6-6-------------------|-
-|--4--4-4-------------------|-
Tap to rate this tab
# A B C D E F G H I J K L M N O P Q R S T U V W X Y Z