Song name
# A B C D E F G H I J K L M N O P Q R S T U V W X Y Z

Walkmen - Seven Years Of Holiday tab

-------------------------------------------------------------------------------
			     The Walkmen - Seven Years Of Holiday
-------------------------------------------------------------------------------
Tabbed by: Calvin Ramsey
Email: Its_Calvin@hotmail.com

Tuning:standard

Intro
e|----------------444444------22222222-----------------------------------------------------|
B|----------------444444------22222222-----------------------------------------------------|
G|-111111111------444444------22222222-----------------------------------------------------|
D|-222222222------666666------44444444-----------------------------------------------------|
A|-222222222------666666------44444444-----------------------------------------------------|
E|----------------444444------22222222-----------------------------------------------------|

Then
e|-----------2---222-------------------------------------------------------------|
B|-----------4---444-------------------------------------------------------------|
G|-1-111-----4---444-----1---111-------------------------------------------------|
D|-2-222-----4---444-----2---222-------------------------------------------------|
A|-2-222-----2---222-----2---222-------------------------------------------------|
E|-----------2---222-------------------------------------------------------------|


repeat back and forth
Tap to rate this tab
# A B C D E F G H I J K L M N O P Q R S T U V W X Y Z