Song name
# A B C D E F G H I J K L M N O P Q R S T U V W X Y Z

Walkmen - Paper House tab

"Paper House"

I have no clue which position Paul plays this in, but this way works fine. To avoid 
cluttering the tab even more I've left most of the slide markers between chords out, 
so you'll have to figure stuff like that out on your own.



**Intro**

|-6-6-6--7--8---|-8/13---13--13--13-----|-13-13-13--12--11\--|---6----6-----------6-|
|-8-8-8--8--8---|-8/13--------------13--|-13-13-13--13--13\--|---8-------8--8--8--8-|
|-8-8-8--8--8---|-8/13------------------|-13-13-13--13--13\--|---8-------8--7--7----|
|---------------|-----------------------|--------------------|----------------------|
|---------------|-----------------------|--------------------|----------------------|
|---------------|-----------------------|--------------------|----------------------|


|------4--------4-|------4--------4-|------6-6------6-6-|------4-4--4----4-|-----3-3------3-3-|
|-6----6--6--6----|-6-------6--6----|------8-8------8-8-|------6-6-------6-|-----4-4------4-4-|
|-5-------5--5----|-5-------5--5----|--8---------8------|--5----------5----|-3---------3------|
|-----------------|-----------------|-------------------|------------------|------------------|
|-----------------|-----------------|-------------------|------------------|------------------|
|-----------------|-----------------|-------------------|------------------|------------------|



**Verses**

|-6-6-6--7--8---|-8/13---13--13--13-----|-13-13-13--12--11\--|---6----6-----------6-|
|-8-8-8--8--8---|-8/13--------------13--|-13-13-13--13--13\--|---8-------8--8--8--8-|
|-8-8-8--8--8---|-8/13------------------|-13-13-13--13--13\--|---8-------8--7--7----|
|---------------|-----------------------|--------------------|----------------------|
|---------------|-----------------------|--------------------|----------------------|
|---------------|-----------------------|--------------------|----------------------|


|------4--------4-|------4--------4-|------6-6------6-6-|------4-4--4----4-|-----3-3------3-3-|
|-6----6--6--6----|-6-------6--6----|------8-8------8-8-|------6-6-------6-|-----4-4------4-4-|
|-5-------5--5----|-5-------5--5----|--8---------8------|--5----------5----|-3---------3------|
|-----------------|-----------------|-------------------|------------------|------------------|
|-----------------|-----------------|-------------------|------------------|------------------|
|-----------------|-----------------|-------------------|------------------|------------------|


|-6-6-6--7--8---|-8/13---13--13--13-----|-13-13-13--12--11\--|---6----6-----------6-|
|-8-8-8--8--8---|-8/13--------------13--|-13-13-13--13--13\--|---8-------8--8--8--8-|
|-8-8-8--8--8---|-8/13------------------|-13-13-13--13--13\--|---8-------8--7--7----|
|---------------|-----------------------|--------------------|----------------------|
|---------------|-----------------------|--------------------|----------------------|
|---------------|-----------------------|--------------------|----------------------|


|------4--------4-|------4--------4-|------6-6------6-6-|------4-4--4----4-|-----3-3------3-3-|
|-6----6--6--6----|-6-------6--6----|------8-8------8-8-|------6-6-------6-|-----4-4------4-4-|
|-5-------5--5----|-5-------5--5----|--8---------8------|--5----------5----|-3---------3------|
|-----------------|-----------------|-------------------|------------------|------------------|
|-----------------|-----------------|-------------------|------------------|------------------|
|-----------------|-----------------|-------------------|------------------|------------------|


|-6-6-6--6--|-4----4-----4-|------4--4---4-|-----6-6-----6-6-|-----6-6---6-6-6-|
|-8-8-8--8--|-6----6---6-6-|-6----6--6-6-6-|-----8-8-----8-8-|-----8-8---8-8-8-|
|-8-8-7--7--|-5--------5---|-5---------5---|-7---------7-----|-7---------7-7-7-|
|-----------|--------------|---------------|-----------------|-----------------|
|-----------|--------------|---------------|-----------------|-----------------|
|-----------|--------------|---------------|-----------------|-----------------|



**Chorus**

|-----------------|-----------------|
|-----8-8-----8-8-|-----4-4-----6-6-|
|-----8-8-----8-8-|-----5-5-----7-7-|
|-----------------|-----------------|
|-6---------6-----|-----------------|
|-----------------|-4-------6-------|




Tap to rate this tab
 
# A B C D E F G H I J K L M N O P Q R S T U V W X Y Z