Song name
# A B C D E F G H I J K L M N O P Q R S T U V W X Y Z

Walt Disney - Pink Elephants On Parade tab

-------------------------------------------------------------------------------
			     Pink Elephants on Parade - Walt Disney
-------------------------------------------------------------------------------
Tabbed by: Marc Woodford


Tuning: Standard

e|---------------------------------------------------------------------------|
B|---------------------------------------------------------------------------|
G|--3-3-3--2-2-2--1-2-0---3-2-3-5--3-2-3-5-----------------------------------|
D|---------------------------------------------------------------------------|
A|---------------------------------------------------------------------------|
E|--------------------------------------------4-4-4--3-3-3--2-3-1--0---------|


e|---------------------0-1---0-1---0--1-2-1----------------------------------|
B|------------------2------2-----2----------2-1------------------------------|
G|--2-3--2-3---2-3-------------------------------3---------------------------|
D|---------------------------------------------------------------------------|
A|---------------------------------------------------------------------------|
E|---------------------------------------------------------------------------|

e|-----------------2-1-------------------------------------------------------|
B|---------------2-----2-3---------------------------------------------------|
G|--2-3-2-3--2-3-------------------------------------------------------------|
D|---------------------------------------------------------------------------|
A|---------------------------------------------------------------------------|
E|---------------------------------------------------------------------------|


e|---------------------0-1---0-1---0--1-2-1----------------------------------|
B|------------------2------2-----2----------2-1------------------------------|
G|--2-3--2-3---2-3-------------------------------3---------------------------|
D|---------------------------------------------------------------------------|
A|---------------------------------------------------------------------------|
E|---------------------------------------------------------------------------|

e|-----------------2-1-------------------------------------------------------|
B|---------------2-----2-3---------------------------------------------------|
G|--2-3-2-3--2-3-------------------------------------------------------------|
D|---------------------------------------------------------------------------|
A|---------------------------------------------------------------------------|
E|---------------------------------------------------------------------------|


Tap to rate this tab
# A B C D E F G H I J K L M N O P Q R S T U V W X Y Z