Walter Trout - Got A Broken Heart tab

-----------------------------------------------------------------------------
		                  Got A Broken Heart - Walter Trout (band)
-----------------------------------------------------------------------------
Tabbed by: Andyt and www/dot/voes/dot/be
Email: andrew@norvil.net

Tuning: Standard

This tab was found by a quick google and I have edited it slightly


Intro solo              
|--------------------------------------------------------------------------|
|--------------------------13b13-------------------------------------------|
|-7b-7b7p5---5-------------------12h14p12----12h14p12----12h14p12----------| 
|----------7-----7-5----------------------14----------14----------14-------|
|--------------------7-----------------------------------------------------|
|--------------------------------------------------------------------------|

|--------------------------------------------------------------------------|
|----------------------------------------15b-13----------------------------|
|-12h14p12------------/7-7-7---5-7-5------------/7-5---5-7-5---------------| 
|----------14-12s10---/7-7---7-------7---------------7-------7---5-7---5-7-|
|--------------------------------------------------------------7-----7-----|
|--------------------------------------------------------------------------|

Main Riff (repeat alot)
|--------------------------------------------------------------------------|
|--------------------------------------------------------------------------|
|-----/7/5-----5---4/7-----------------------------------------------------| 
|-----/7/5-----5---5/7-----------------------------------------------------|
|-0-0---------0--0---------------------------------------------------------|
|--------------------------------------------------------------------------|

|--------------------------------------------------------------------------|
|--------------------------------------------------------------------------|
|-----/7/5-----5---9-7-----------------------------------------------------| 
|-----/7/5-----5---5-7-----------------------------------------------------|
|-0-0---------0--0---------------------------------------------------------|
|--------------------------------------------------------------------------|

Bridge: F Am G F       F Am Dm E7
Solo 
|--------------------------------------------------------------------------|
|----------------------------------13-------13-----------------------------|
|-------12-14-12-14----14----14-------12-14--------------------------------| 
|/14-14--------------------------------------------------------------------|
|--------------------------------------------------------------------------|
|--------------------------------------------------------------------------|

|--------------------------------------------------------------------------|
|--------------------------------------------------------------------------|
|----5-0-4-------------5-7B7p5---------------------------------------------| 
|----------7-------5-7---------7-------------------------------------------|
|-/7---------5-6-7---------------------------------------------------------|
|--------------------------------------------------------------------------|

|--------------------------------------------------------------------------|
|-------------------15-15B15----15-----------------------------------------|
|-/14-16-17---16-17----------17--------------------------------------------| 
|--------------------------------------------------------------------------|
|--------------------------------------------------------------------------|
|--------------------------------------------------------------------------|

F                 Am                 G                  F       
|-----------------|------------------|----15-17-17B17---|20-17-------------|
|15-15B15----15---|17(B)-------------|-/17--------------|------------------|
|---------17------|------------------|------------------|------------------|
|-----------------|------------------|------------------|------------------|
|-----------------|------------------|------------------|------------------|
|-----------------|------------------|------------------|------------------|

F                 Am                 D                  E
|-----------------|---17h20p17-------|---20----20-------|22B---------|-----|
|20B--------------|20----------20----|22----22----22----|------------|-20B-|
|-----------------|------------------|------------------|------------|-----|
|-----------------|------------------|------------------|------------|-----|
|-----------------|------------------|------------------|------------|-----|
|-----------------|------------------|------------------|------------|-----|
Tap to rate this tab
 
# A B C D E F G H I J K L M N O P Q R S T U V W X Y Z