Guitaretab - guitar tabs
Song name
# A B C D E F G H I J K L M N O P Q R S T U V W X Y Z
Home / W / Warfaze / Somoy tab

Warfaze - Somoy tab

          Warfaze Somoy (2nd solo)

NOTES:h>Hamer,p>pull,~>vibration  Tuning: Standard(eBGDAE)


e|-----------------------17--------19--------21-----------|
B|---15-14-15-19-15-14-15--15-14-15--15-14-15--15-14-15---|
G|-16-----------------------------------------------------|
D|--------------------------------------------------------|
A|--------------------------------------------------------|
E|--------------------------------------------------------|

e|19--------17----------------------19-17-15----------------|
B|--15-14-15--15-14-15-19-15-14-15----------15-14-----------|
G|-----------------------------------------------16-14------|
D|----------------------------------------------------17-15-|
A|----------------------------------------------------------|
E|----------------------------------------------------------|

e|19-17-15--------------------------------------------------------------------|
B|--------15-14----------------------------------------12---------------------|
G|-------------16-14-----------11-12-14--------11-12-14--14-12-11h12p11h9-11~-|
D|------------------17-15-14-----------11-12-14-------------------------------|
A|--------------------------17------------------------------------------------|
E|----------------------------------------------------------------------------|
[ Tab from: http://www.guitaretab.com/w/warfaze/278587.html ]
e|----------------------------------------------------|
B|----------12--------15--------17--------19----------|
G|--12-11-12--12-11-12--12-11-12--14-13-14--15-14-15--|
D|14--------------------------------------------------|
A|----------------------------------------------------|
E|----------------------------------------------------|

e|------------------------------------------------------------------------|
B|15-13-12-15-13-12-17-15-13-17-15-13-19-17-15-19-17-15-20-19-17-20-19-17-|
G|------------------------------------------------------------------------|
D|------------------------------------------------------------------------|
A|------------------------------------------------------------------------|
E|------------------------------------------------------------------------|

e|19h15-----19h15p19h15-19h15------------|
B|-----15h19-----------------19h15p19h15-|
G|---------------------------------------|
D|---------------------------------------|
A|---------------------------------------|
E|---------------------------------------|

e|19-17-15-----------------------------------------------------------------|
B|--------19-17-15-17-15-14------------------------------------------------|
G|-------------------------17-15-14-15-14-12-------------------------------|
D|------------------------------------------15-14-12-17-15-14--------------|
A|-----------------------------------------------------------17-15-14-14~~-|
E|-------------------------------------------------------------------------|

Tabbed by Pohil.

Email:www.Sad.pohil@yahoo.com
Related for Somoy tab
Somoy chords by Warfaze