Song name
# A B C D E F G H I J K L M N O P Q R S T U V W X Y Z

Warfield - Nobody Knows Me tab

Help us improve GuitareTab! Take a short survey!
Band: Warfield
Album: Iluzija
Song: Nobody knows me
Band website: http://www.myspace.com/bandwarfield

Standard tuning: E,A,D,G,B,E

Timing is made from original CD, for those who use music from Jamendo, could be little different.

contact: janpecnik@hotmail.com
Standart tunning.

Intro: Guitar 1 plays clean distortion,Gtr 2 plays full distorted
Guitar 1 (0.00-0.20)
E|---------------------------------------|
B|---------------------------------------|
G|---------------------------------------|
D|-------------------------------2-------|
A|------7-5--3--7-5--0--7-5--3-2---------|
E|----0----------------------------------|
 |                                       |                                   
 | Gtr 2 (0.05-0.20)                     |
E|---------------------------------------|
B|---------------------------------------|
G|---------------------------------------|
D|-------------------------------2-------| 
A|------7-5--3--7-5--0--7-5--3-2---------|
E|----0----------------------------------|

Verse: 
Gtr 1 + Gtr 2 (0.21-0.48)
E|---------------------------------------|
B|---------------------------------------|
G|-444444-555555-22222--55-4-55----------|
D|-444444-555555-22222--55-4-55----------|
A|-222222-333333-00000--33-2-33----------|
E|---------------------------------------|

Chorus: 
Guitar 2 (0.49-0.58)
E|-----------------------------------------------|
B|-----------------------------------------------|
G|-7x777x7x777-4x444x4x444-5x555x5x555-----xxxxxx|
D|-7x777x7x777-4x444x4x444-5x555x5x555-x-5-xxxxxx|
A|-5x555x5x555-2x222x2x222-3x333x3x333-x-5-xxxxxx|
E|-------------------------------------x-3-------|

Post Chorus:
Gtr 1 (0.59-1.37)
E|--------------------------------|
B|--------------------------------|
G|--------------------------------|
D|-99x999/55x555/77x777/99x999----|
A|-99x999/55x555/77x777/99x999----|
E|-77-777/33-333/55-555/77-777----|

Interlude:
Gtr 2 (1.17-1.36)
E|77777h5-----------------------------77777h5-------------------------------|
B|-------8-10-12-1010101010p12-10-8-7--------8-10-12-10-9h10--------12-18s19|
G|----------------------------------------------------------14-16-15--------|
D|--------------------------------------------------------------------------|
A|--------------------------------------------------------------------------|
E|--------------------------------------------------------------------------|

Chorus: 
Guitar 2 (1.37-1.46)
E|-----------------------------------------------|
B|-----------------------------------------------|
G|-7x777x7x777-4x444x4x444-5x555x5x555-----xxxxxx|
D|-7x777x7x777-4x444x4x444-5x555x5x555-x-5-xxxxxx|
A|-5x555x5x555-2x222x2x222-3x333x3x333-x-5-xxxxxx|
E|-------------------------------------x-3-------|

Verse: 
Gtr 1 + Gtr 2 (1.47-2.05)
E|---------------------------------------|
B|---------------------------------------|
G|-444444-555555-22222--55-4-55----------|
D|-444444-555555-22222--55-4-55----------|
A|-222222-333333-00000--33-2-33----------|
E|---------------------------------------|

Chorus: 
Guitar 2 (2.06-2.15)
E|-----------------------------------------------|
B|-----------------------------------------------|
G|-7x777x7x777-4x444x4x444-5x555x5x555-----xxxxxx|
D|-7x777x7x777-4x444x4x444-5x555x5x555-x-5-xxxxxx|
A|-5x555x5x555-2x222x2x222-3x333x3x333-x-5-xxxxxx|
E|-------------------------------------x-3-------|

Bass part: 
Gtr 1 + Gtr 2 (2.15-2.24)
E|----------------------|
B|----------------------|
G|----------------------|
D|----------------------|
A|----------------------|
E|----------------------|

Post Chorus:
Gtr 1 (2.24-2.53)
E|--------------------------------|
B|--------------------------------|
G|--------------------------------|
D|-99x999/55x555/77x777/99x999----|
A|-99x999/55x555/77x777/99x999----|
E|-77-777/33-333/55-555/77-777----|

Interlude:
Gtr 2 (2.34-2.53)
E|77777h5-----------------------------77777h5-------------------------------|
B|-------8-10-12-1010101010p12-10-8-7--------8-10-12-10-9h10--------12-18s19|
G|----------------------------------------------------------14-16-15--------|
D|--------------------------------------------------------------------------|
A|--------------------------------------------------------------------------|
E|--------------------------------------------------------------------------|

Chorus: 
Guitar 2 (2.53-3.13)
E|-----------------------------------------------|
B|-----------------------------------------------|
G|-7x777x7x777-4x444x4x444-5x555x5x555-----xxxxxx|
D|-7x777x7x777-4x444x4x444-5x555x5x555-x-5-xxxxxx|
A|-5x555x5x555-2x222x2x222-3x333x3x333-x-5-xxxxxx|
E|-------------------------------------x-3-------|

End: (3.13)
Gtr 1 + Gtr 2
E|--------|
B|--------|
G|---7----|
D|---7----|
A|---5----|
E|--------|

Order of song:
1.Intro
2.Verse
3.Chorus
4.Post Chorus
5.Interlude
6.Chorus
7.Verse
8.Chorus
9.Bass part
10.Post Chorus
11.Interlude
12.Chorus
13.End


//\\Legend//\\
..............
~  -let ring
s  -slide to requied note
h  -hammer on
p  -pull off





Related for Nobody Knows Me tab