Song name
# A B C D E F G H I J K L M N O P Q R S T U V W X Y Z

Warren Zevon - My Shits Fucked Up tab

Help us improve GuitareTab! Take a short survey!
MY SHIT'S FUCKED UP - Warren Zevon
Tabbed by Sam Jackson 24 July 2006
samj800@hotmail.com

I belive that on the record there is a bass guitar tuned down a whole step, so if you are playing 

this on your own I recomend drop-D tuning to get that low drone.

I prefer to hybrid pick this song (using pick and fingers), but it could be played fingerstyle.

INTRO 
e|----------------------|---------------------------|
B|----------------------|---------------------------|
G|-2-0-2----2-0---0---0-|-2-0-2----2-5-2-0--------0-|
D|--------0-----3---3---|--------0---------3-0--3---|
A|-0-0-0----------------|-0-0-0---------------------|
D|----------------------|---------------------------|

e|----------------------|------------------------|
B|----------------------|------------------------|
G|-2-0-2----2-0---0---0-|---------0---0--------2-|
D|--------0-----3---3---|-0-0-3-0---5----0---0---|
A|-0-0-0----------------|------------------------|
D|----------------------|------------------0-----|


VERSE
I've ignored some of the variations in the verse but you get the idea, so improvise a bit or listen 

to the record if you want to play it exactly the same, especially for the last few notes of the 

riff.

e|------------------------|------------------------|
B|------------------------|------------------------|
G|---------0---0--------2-|---------0---0--------2-|
D|-0-0-3-0---5----0---0---|-0-0-3-0---5----0---0---|
A|------------------------|------------------------|
D|------------------0-----|------------------0-----|
When I went to the doctor, I said I'm feeling kinda rough.

e|------------------------|------------------------|
B|------------------------|------------------------|
G|-5-2-0-------2----------|---------0---0--------2-|
D|-------3-0--0--8-7-5--5-|-0-0-3-0---5----0---0---|
A|---------------------5--|------------------------|
D|---------------8-7-5----|------------------0-----|
Let me break it to you son, your shit's fucked up. 

    
BRIDGE
Again, the chords are correct, but you can pick them how you want. Just get the feeling right.
  A5      G5     D5         F5     G5     D5            
e|------------------------|-----------------------------|
B|------------------------|-----------------------------|
G|------------------------|-----------------------2-----|
D|------7------5------0---|------3------5-------0---0---|
A|----7------5------------|----3------5-------0-------0-|
D|-7------5------0--0---0-|-3------5------0-0-----------|
  Yeah, yeah...            it has to happen...

  A5      G5     D5        N.C.        
e|------------------------|-------------|
B|------------------------|-------------|
G|------------------------|-------------|
D|------7------5------0---|-------------|
A|----7------5------------|-3------3--5-|
D|-7------5------0--0---0-|-------------|
  the rich folks...         happen to you.

The interlude after the bridge is just the bridge but with more fancy bits etc, there is no point in 

tabbing it out exactly.
Related for My Shits Fucked Up tab