Song name
# A B C D E F G H I J K L M N O P Q R S T U V W X Y Z

Washya - Sting In The Tail tab

-----------------------------------------------------------------------------
			     Sting in the tail - Washya
-----------------------------------------------------------------------------
Tabbed by: Josh
Email:

Tuning: Drop C
Intro
D|------------------------|
A|------------------------|
F|------------------------|
C|------------------------|
G|------------------------|
C|-0000-0-0-0--0000-0-0-0-|x 16
pm .... . . .  .... . . . 

Main Riff
D|---------------------------------------|
A|---------------------------------------|
F|---------------------------------------|
C|---3-1-0---1-0---------2-1-3-----------|
G|---------3-----3---1-3-------1-0-------|
C|-0---------------3---------------3-2-1-| x 3

Verses
D|--------------------------------------------|
A|--------------------------------------------|
F|--------------------------------------------|
C|------------------3-2-1-0-3-----------------|
G|------------------3-2-1-0-3-----------------|
C|-0000-1--0000-1---3-2-1-0-3--0000-1--0000-1-|
pm ....    ....     . . . . .  ....    .... 

Chorus
D|--------------------------------------------------|
A|--------------------------------------------------|
F|------------3------2------------------------------|
C|-5--8--1111-3-1111-2-1111-0-----------------------|
G|-3--6--1111-1-1111-0-1111-0---------3~---------1~-|
C|-------1111---1111---1111-0-6-5-3-1----6-5-3-1----|
pm       ....   ....   ....   . . . .    . . . .  

Guitar Solo 
D|-12b-10b-15b--17-------15-------14h17p16p14h17p16p14-|
A|-15b-13b-18b-----15-15----13-13----------------------|
F|-----------------------------------------------------|
C|-----------------------------------------------------|
G|-----------------------------------------------------|
C|-----------------------------------------------------|

D|-15h17h19p17p15h17h19p17p15-17h19h21p19p17h19h21-21----------------------|
A|----------------------------------------------------19-18-19-17----------|
F|----------------------------------------------------------------15-14-15-|
C|-------------------------------------------------------------------------|
G|-------------------------------------------------------------------------|
C|-------------------------------------------------------------------------|

D|----------------------------------------------------------15-17-20~-|
A|-------------------------------------------------15-13-12-----------|
F|-17----------------------------15-13----13-14-16--------------------|
C|----15-14-15----------15-13-12-------12-----------------------------|
G|-------------13-12-13-----------------------------------------------|
C|--------------------------------------------------------------------|
Tap to rate this tab
 
# A B C D E F G H I J K L M N O P Q R S T U V W X Y Z