Song name
# A B C D E F G H I J K L M N O P Q R S T U V W X Y Z

Washya - Red Rain tab

-------------------------------------------------------------------------------
			     Red Rain - Washya
-------------------------------------------------------------------------------
Tabbed by:
Email:

Tuning: Drop D

e|--------------------------------------|
B|--------------------------------------|
G|--------------------------------------|
D|--------------------------------------|
A|-----7h8p5-----5h6p3-----2h3p2--------|
D|-000-------000-------000-------111000-|
pm ...       ...       ...       ......


Verses
e|---------------------------------------------|
B|---------------------------------------------|
G|---------------------------------------------|
D|---------------------------------------------|
A|--------4p3h4h7------6h7p4---------3-0-1-3-3-|
D|-0000-5---------00-7-------000-000-3-0-1-3-3-|
pm ....           ..         ... ... 


Chorus
e|-------------------------------------------------------|
B|-------------------------------------------------------|
G|---------2-3-------------------------------------------|
D|-0-3-2-3-2-3-3-2-3-0-1-1-2---------------1-2-3-2-0-2-1-|
A|-0-3-2-3-0-1-3-2-3-0-1-1-2---------------1-2-3-2-0-2-1-|
D|-0-3-2-3-0-0-3-2-3-0-1-1-2-2-2-2-2-2-2-2-1-2-3-2-0-2-1-|
pm                           . . . . . . . 
Tap to rate this tab
 
# A B C D E F G H I J K L M N O P Q R S T U V W X Y Z