Song name
# A B C D E F G H I J K L M N O P Q R S T U V W X Y Z

Washya - Flesh And Bone tab

-----------------------------------------------------------------------------
			     Flesh and Bone - Washya
-----------------------------------------------------------------------------
Tabbed by: Josh
Email:

Tuning: Standard (ebgDAE) 
Intro/Verses (Play Constant)

e|-----------------------------------------------------------------------0--|
B|-----------------------------------------------------------------------3--|
G|-------------------------0---------------------------------3-2---------2--|
D|---4---0-4-5-----4-----4---4-------4-0---4---0-6-5-----4-0-----2---4-0-0--|
A|-2---2-------3-2-----2-------2---2-----2---2-------4-2-----------2-----0--|
E|-------------------2-----------3---------------------------------------0--|


Chorus
Strum Last 2 Chords
e|-----------------------------------------------------------------2-2---|
B|-----------------------------------------0-----------------------2-2---|
G|---------------------------------------0---------0-------2p0-----5-5---|
D|---4---0-2-3-------5---3---4---4---4-0-------4-----4---0-----2p0-4-4---|
A|-2---2-------2-0-3---3-----------2---------2---2-----2-----------4-4---|
E|-------------------------2---3-----------------------------------2-2---|

Tap to rate this tab
 
# A B C D E F G H I J K L M N O P Q R S T U V W X Y Z