Washya - Stained tab

-----------------------------------------------------------------------------
			     Stained - Washya
-----------------------------------------------------------------------------
Tabbed by:
Email:

Tuning: Drop B (BF#BEG#C#)
Intro
B|--------------------------------------------------------------------|
F#|-------------------------------------------------------------------|
B|--------------------------------------------------------------------|
E|--------------------------------------------------------------------|
G#|-------------------------------------------------------------------|
C#|-3p2p0-0-0-0-0-0-0-0-0-0-0-0-0-3p2p0-0-0-0-0-0-0-3p2p0-0-0-0-0-0-0-|
pm        . . . . . . . . . . . .       . . . . . .       . . . . . . 

Intro 2
B|------------------------------------------------------------|
F#|-----------------------------------------------------------|
B|------------------------------------------------------------|
E|------------------------------------------------------------|
G#|-3-2-0--0-0-0-0-0-0-0-0-0-0-0-0-0-0-0-0-3-2-0--0-0-0-0-0-0-|
C#|-3-2-0--0-0-0-0-0-0-0-0-0-0-0-0-0-0-0-0-3-2-0--0-0-0-0-0-0-|
pm         . . . . . . . . . . . . . . . .        . . . . . . 

Verses                             p.h
B|-----------------------------------------------------------------------|
F#|----------------------------------------------------------------------|
B|-----------------------------------------------------------------------|
E|---------------------------------<7>-----------------------------------|
G#|----------------5-5--5-55-5-5-5-----55-5-55-3-33-3-3333-3-8-8-88-8-8--|
C#|-xx\\pickslide--5-5--5-55-5-5-5-----55-5-55-3-33-3-3333-3-8-8-88-8-8--|


Chorus
B|---------------------------------------------------------|
F#|--------------------------------------------------------|
B|---------------------------------------------------------|
E|---------------------------------------------------------|
G#|-2-0-2-5-55-5-5-0-2-2-22-2-22-0-5-55-5-5555-5-9\8-6-3-5-|
C#|-2-0-2-5-55-5-5-0-2-2-22-2-22-0-5-55-5-5555-5-9\8-6-3-5-|

Guitar Solo
B|------------------------------------------------------------------------9-|
F#|---------------------------------------------------------888888---9999---|
B|-------------------------------666666---777777---444444-6--------6--------|
E|----444444---555555---222222-4--------4--------4--------------------------|
G#|-2--------2--------2-----------------------------------------------------|
C#|-------------------------------------------------------------------------|
Tap to rate this tab
 
# A B C D E F G H I J K L M N O P Q R S T U V W X Y Z