Song name
# A B C D E F G H I J K L M N O P Q R S T U V W X Y Z

Washya - Hourglass tab

-------------------------------------------------------------------------------
                              Hourglass - Washya
-------------------------------------------------------------------------------
Tuning: D Tuning (DAFCGD)
Intro
D|-----------------------|
A|-----------------------|
F|-----------------------|
C|-------5h6p5-----2-----|
G|-5h6h8-------2h3-------|
D|-------------------1-3-|
PM             ... . . . 

Main Riff?chorus
D|--------------------------------------------------|
A|--------------------------------------------------|
F|--------------------------------------------------|
C|---------555/666---------3----9/101010------------|
G|-444/777-333/444-333/555-1-33-7/8-8-8--222-333/55-|
D|-222/555---------111/333---11----------000-111/33-|

Verses
D|---------------------------------------------------------|
A|---------------------------------------------------------|
F|---------------------------------------------------------|
C|-------------2---4~-------------------------------7------|
G|---------2h3---2------------6/5/6/5/3---------7h9---7----|
D|-000-000------------000-000-4/3/4/3/1-000-000---------5~-|
PM ... ...            ... ...           ... ... 
Tap to rate this tab
 
# A B C D E F G H I J K L M N O P Q R S T U V W X Y Z