Song name
# A B C D E F G H I J K L M N O P Q R S T U V W X Y Z

Washya - United We Stand tab

-------------------------------------------------------------------------------
           United We Stand - Washya
-------------------------------------------------------------------------------
Tuning: Standard(EBGDAE)
Intro
E|----------------------------------------------------------|
B|----------------------------------------------------------|
G|----------------------------------------------------------|
D|-5-777-55-777-5-777-55-777-5-777-55-777-7p5---5-8p7-5-777-|
A|-3-555-33-555-3-555-33-555-3-555-33-555-----7-------3-555-|
E|----------------------------------------------------------|

Verses
E|----------------------------------------------------------|
B|----------------------------------------------------------|
G|----------------------------------------------------------|
D|----------------------------------------------------------|
A|-2-222-22-222-2-222-22-222-2-222-22-222-3p1---1p4p3-2-222-|
E|-0-000-00-000-0-000-00-000-0-000-00-000-----3-------0-000-|
PM * *** ** *** * *** ** *** * *** ** ***             * *** 

Chorus
E|--------------------------------------------------------------------|
B|--------------------------------------------------------------------|
G|--------------------------------------------------------------------|
D|----7\5-------4p3p1---------55------------5---7-8p7p5---5-----------|
A|-22-5\3-3-1h3-------3/55-55-33-8-5/77-5h7---7---------7---999\555-2-|
E|-00-----1-----------1/33-33----6-3/55---------------------777\333-0-|
PM **                                                               
Tap to rate this tab
# A B C D E F G H I J K L M N O P Q R S T U V W X Y Z