Song name
# A B C D E F G H I J K L M N O P Q R S T U V W X Y Z

Washya - Entity tab

-----------------------------------------------------------------------------
                          Entity - Washya
-----------------------------------------------------------------------------
Tuning: Standard (EBGDAE)
Intro
E|-------------------------------------------------------------------|
B|-------------------------------------------------------------------|
G|-------------5-4-3-------------------------------------------------|
D|-------------5-4-3------------3p2p0------------------6-5-4---------|
A|------------------------------------2-0-2------------6-5-4-5-4-3-2-|
E|-00000000000-------0000000000-------------0000000000-------3-2-1-0-|
PM ***********       **********             ********** 

Verses
E|------------------------------------------------------------------|
B|------------------------------------------------------------------|
G|------------------------------------------------------------------|
D|----------3p2p0----------------3p2p0------------------------------|
A|----------------2-0-2----------------2-0-2----------------------2-|
E|-00000000-------------00000000-------------00000000-6-5-3-5-3-2-0-|
PM ********             ********             ******** 

Chorus
E|-------------------------------------|
B|-------------------------------------|
G|-------------------------------------|
D|-7-6-5-------8-7-6-------7-6-5-------|
A|-5-4-3-5-4-3-6-5-3-7-5-4-5-4-3-3-4-5-|
E|-------3-2-1-------5-3-2-------1-2-3-|
Tap to rate this tab
# A B C D E F G H I J K L M N O P Q R S T U V W X Y Z