Song name
# A B C D E F G H I J K L M N O P Q R S T U V W X Y Z

Washya - Silverlight tab

------------------------------------------------------------------------------
                       Silverlight - Washya
------------------------------------------------------------------------------
Tuning: Standard (EBGDAE)
Intro
E|-------------------------|
B|-------------------------|
G|-------------------------|
D|----------3--------------|
A|-555-33-5-1-222-33-55-66-|
E|-333-11-3---000-11-33-44-|

Verses
E|-------------------------------------------------|
B|-------------------------------------------------|
G|-------------------------------------------------|
D|---------5-555---------9-8-999---------5-5/7-777-|
A|-333-222-3-333-333-222-7-6-777-333-222-3-3/5-555-|
E|-111-000-------111-000---------111-000-----------|
PM *** ***       *** ***         *** *** 

Chorus
E|---------------------------------------------------------------------|
B|---------------------------------------------------------------------|
G|---------------------------------------------------------------------|
D|--------------------777-------555------------99999/10\9--------------|
A|-3-33333/7-777777-x-555-555-x-333-333/444/55-77777/8\-7-5-5555-3-3-2-|
E|-1-11111/5-555555-x-----333-x-----111/222/33------------3-3333-1-1-0-|
PM                                                          ****    

Lead (played Slow) x2
E|-----------------------------------------------------------------------|
B|---------------------------------10-8-7--------------------------------|
G|-----9-----7b-5----5h7---5h7---7--------10-8-7-------------------------|
D|-7-7---7-9------7~-----7-----5-----------------8-7-5-------------------|
A|-----------------------------------------------------6-5-3---3-0-----2-|
E|-----------------------------------------------------------5-----3-2-0-|
Tap to rate this tab
# A B C D E F G H I J K L M N O P Q R S T U V W X Y Z