Song name
# A B C D E F G H I J K L M N O P Q R S T U V W X Y Z

Washya - Pretending tab

-----------------------------------------------------------------------------
            Pretending - Washya
-----------------------------------------------------------------------------
Tuning: Drop D (DADGBE)
Intro
E|--------------------------|
B|--------------------------|
G|--------------------------|
D|-----------------55555-77-|
A|-0-5/6-3-0-1/3-0-33333-55-|
D|-0-5/6-3-0-1/3-0----------|

Verses
E|------------------------------------------------------|
B|------------------------------------------------------|
G|------------------------------------------------------|
D|------------------------------------------------------|
A|---------------------------------------------33333-55-|
D|-0-6-0-3-0-3-5-0-6-0-3-0-3-5-0-6-0-3-0-3-5-0-33333-55-|
PM * * * * * * * * * * * * * * * * * * * * * *  

Chorus (Play very fast slight palm mute)
E|-------------------------------------------|
B|-------------------------------------------|
G|-------------------------------------------|
D|-------------2*----------------------------|
A|-22-232-2-23----2-232-3-5-55-6-3-333-5-4-2-|
D|-22-232-2-23----2-232-3-5-55-6-3-333-5-4-2-|
PM *  * * * *     * * * *   **   *  **   * 
Tap to rate this tab
# A B C D E F G H I J K L M N O P Q R S T U V W X Y Z